Symphony X - Inferno Chords & Tabs

 

Inferno Chords & Tabs

Symphony X Chords & Tabs

Version: 1 Type: Tab 0 ratings
1 star 2 stars 3 stars 4 stars 5 stars
comments

Inferno Tab

   
Symphony X 
Inferno
Album: The Odyssey
---------------------------------------------------------------------------
			     Inferno - Symphony X
---------------------------------------------------------------------------
Tabbed by:Riqz85
Email:Riqz85@yahoo.com

Tuning:Standard 
Intro
-------------------------------------------------------------
-------------------------------------------------------------
-13-12-10-12-0-0-0-0-10-8-7-0-8-7-5-0----13-12-10-12-0-0-0-0-
-------------------------------------------------------------
-------------------------------------------------------------
-------------------------------------------------------------


-------------------------------------------------------------
-------------------------------------------------------------
-10-8-7-0-8-7-5-0-7-5-4-0---1-0-1-0-0-0-1-0-1-4-1-0-7-5-4-0-1
-------------------------------------------------------------
-------------------------------------------------------------
-------------------------------------------------------------


-------------------------------------------------------------
-------------------------------------------------------------
-0-1-0-0-0-1-0-1-4-1-0---13-12-10-12-0-0-0-0-10-8-7-0-8-7-5-0
-------------------------------------------------------------
-------------------------------------------------------------
-------------------------------------------------------------

					 passe 1
---------------------------------------- --10----------------
---------------------------------------- -----13-12----------
-13-12-10-12-0-0-0-0-10-8-7-0-12-10-8-0- -----------13-12-10-
---------------------------------------- --------------------
---------------------------------------- --------------------
---------------------------------------- --------------------


-16-15-13-11-10----10----------------------------------------
----------------13----13-12----------------------------------
----------------------------13-12-10-13-12-10----------------
----------------------------------------------13-12-10-9----9
---------------------------------------------------------10--
-------------------------------------------------------------

		 
---------------- 
---------------- 
----------10-12- 
-10-12-13------- 
---------------- 
---------------- 



Oo>=-=-==-=-===============\<0>/=================-=-==-=-=A1                        
---------------------------- -10---------------- 
---------------------------- ----13-12---------- 
-13-12-10-12----0-0-0-0----- ----------13-12-10- 
---------------------------- ------------------- 
---------------------------- ------------------- 
---------------------------- ------------------- 

*Repeat Rythm 1

B1
-16-15-13--11-10-----10-------------------------
-----------------13------13-12------------------
--------------------------------13-12-10--------
------------------------------------------------
------------------------------------------------
------------------------------------------------

*Repeat Rythm 1 

*A1

*Repeat Rythm 1


Passe 2
--16-15-13-11-10----10----------------------
-----------------13----13-12----------------
-----------------------------13-12-10-13-12-
--------------------------------------------
--------------------------------------------
--------------------------------------------


-------------------------------- 
-------------------------------- 
-10----------------------------- 
----13-12-10-12-10-9------------
---------------------11-10-8-10- 
-------------------------------- 



Oo>=-=-==-=-===============\<0>/=================-=-==-=-==-=-==-=-===============\<0>/=================-=-==-=-=A.
--------------------------------- ---------------------------
--------------------------------- -----------------6-8-------
--------------------------------- -----5--7------8-----------
--------7h8p7p5h7------7h8p7p5h7- --8------------------------
--------------------------------- ---------------------------
-5-5-5--------------------------- ---------------------------


Go Back to Rythm 1



Oo>=-=-==-=-===============\<0>/=================-=-==-=-=[ Tab from: http://www.guitartabs.cc/tabs/s/symphony_x/inferno_tab.html ]
-------------------------------------------------------------
-------------------------------------------------------------
-------------------------------------------------------------
-9h11h12-p11p9-----------------------------------------------
---------------12-p11p9-8h9h11p9p8---------------------------
-----------------------------------10p9p7h9Big VIB----7b5drop



Oo>=-=-==-=-===============\<0>/=================-=-==-=-=B.
-----------------------------------
-----------------------------------
-----------------------------------
-8---7---5--------------chorus-----
--------------8-7-5-----.....------
-----------------------------------


Chorus (x2)
-------------------------------------------------------------
-------------------------------------------------------------
----------------------6-----------------------------------5--
-3--------------------6-----------------------------------5--
-3--------------------4--4-4-4--4-4-4--4-4-4--4-4-4--4-4--3--
-1--1-1-1--1-1-1--1-1----------------------------------------

-------------------------------------------------------------
-------------------------------------------------------------
-------------------------------------------------------------
-----------------3---------------------------5----6----------
-3-3-3--3--------3---------------------------6----6----------
-----------4--3--1--1-1-1--1-1-1--1-1-1--1-1-3----4----4-4-4-


-------------------------------------------------------------
-------------------------------------------------------------
----------3-----------------------------------5--------------
----------3-----------------------------------5--------------
----------1--1-1-1--1-1-1--1-1-1--1-1-1--1-1--3--3-3-3--3-3-3
4-4-4--4-4---------------------------------------------------

	     Box 1                              Box 2 
------------ ---------------------------------  -----5-------
------------ ---------------------------------  -----5-------
------------ 6-5-3----------------------------  -----7-------
------------ ------6-5-3-5-3-2----------------  -----7------- 
-3-3-3--3-3- ------------------4-3-1----------  -----5-------
------------ ------------------------4-3-1-0--  -------------


Go back to Rythm 1


Oo>=-=-==-=-===============\<0>/=================-=-==-=-==-=-==-=-===============\<0>/=================-=-==-=-==-=-==-=-===============\<0>/=================-=-==-=-==-=-==-=-===============\<0>/=================-=-==-=-=h  hammer-on
| p  pull-off
| ~  vibrato
| +  harmonic
| x  Mute note
=========================================================================
thx to www.symphonyx.com
and thx to Pierre-Olivier Merizzi
write complaints to riqz85@yahoo.com
Comments