Sydney Forest - Soaring Chords & Tabs

 

Soaring Chords & Tabs

Sydney Forest Chords & Tabs

Version: 1 Type: Tab 0 ratings
1 star 2 stars 3 stars 4 stars 5 stars
comments

Soaring Tab

This song is a great song its from kiki's delivery service and this is how I play it Any
questions or comments Please email me at sephiroth_the_Blessed_betrayer@yahoo.com

Tabber- Junior davis
Email sephiroth_the_blessed_betrayer@yahoo.com

Key
^ means a up stroke
> Means down stroke

I also Tuned the be down a little maybe its a Bb I tuned it by using the g string on 
fret instead of
fourth..


 Intro
e|----------------------------------------------|
B|----------------------------------------------|
G|-9-9-9-9-9-9-------------------4-4-4-4-4-4----|
D|-9-9-9-9-9-9-x2-5-5-5-5-5-5----4-4-4-4-4-4-x1-|    I play this whole thing twice
A|-7-7-7-7-7-7----5-5-5-5-5-5-x1-2-2-2-2-2-2----|  After you play the 4 power chord slide back
E|----------------3-3-3-3-3-3-------------------| down to 9 sounds nice.
   > > ^ ^ > ^    > > ^ ^ > ^    > > ^ ^ > ^

Then she sings


Verse
e|----------------------------------------------|
B|----------------------------------------------|
G|-9-9-9-9-9-9-------------------4-4-4-4-4-4----|
D|-9-9-9-9-9-9-x2-5-5-5-5-5-5----4-4-4-4-4-4-x1-|
A|-7-7-7-7-7-7----5-5-5-5-5-5-x1-2-2-2-2-2-2----|
E|----------------3-3-3-3-3-3-------------------|
   > > ^ ^ > ^    > > ^ ^ > ^    > > ^ ^ > ^
My heart is ready to beat...

e|----------------------------------------------|
B|----------------------------------------------|
G|-9-9-9-9-9-9-------------------4-4-4-4-4-4----|
D|-9-9-9-9-9-9-x2-5-5-5-5-5-5----4-4-4-4-4-4-x1-|
A|-7-7-7-7-7-7----5-5-5-5-5-5-x1-2-2-2-2-2-2----|
E|----------------3-3-3-3-3-3-------------------|
   > > ^ ^ > ^    > > ^ ^ > ^    > > ^ ^ > ^
Im gonna jump over the moon...

e|----------------------------------------------|
B|----------------------------------------------|
G|-6-6-6-6-6-6-------------------4-4-4-4-4-4----|
D|-6-6-6-6-6-6-x2-5-5-5-5-5-5----4-4-4-4-4-4-x1-|
A|-3-3-3-3-3-3----5-5-5-5-5-5-x1-2-2-2-2-2-2----|
E|----------------3-3-3-3-3-3-------------------|
   > > ^ ^ > ^    > > ^ ^ > ^    > > ^ ^ > ^
Im free as a bird...

e|----------------------------------------------|
B|----------------------------------------------|
G|-6-6-6-6-6-6-------------------4-4-4-4-4-4----|
D|-6-6-6-6-6-6-x2-5-5-5-5-5-5----4-4-4-4-4-4-x1-|
A|-3-3-3-3-3-3----5-5-5-5-5-5-x1-2-2-2-2-2-2----|
E|----------------3-3-3-3-3-3-------------------|
   > > ^ ^ > ^    > > ^ ^ > ^    > > ^ ^ > ^
Don't know where im gonna land..

Chorus
[ Tab from: http://www.guitartabs.cc/tabs/s/sydney_forest/soaring_tab.html ]
e|-----------------------------------------------|
B|----------------9-9-9-8-8-8-----9-9-9-9-9-9----|
G|-9-9-9-9-9-9----9-9-9-9-9-9-x1--9-9-9-9-9-9----|x2
D|-9-9-9-9-9-9-x1-7-7-7-7-7-7-----7-7-7-7-7-7----|
A|-7-7-7-7-7-7-----------------------------------|
E|-----------------------------------------------|
   > > ^ ^ > ^    > > ^ > > ^     > > ^ ^ > ^
I'm soaring...

e|-----------------------------------------------|
B|----------------9-9-9-8-8-8-----9-9-9-9-9-9----|
G|-9-9-9-9-9-9----9-9-9-9-9-9-x1--9-9-9-9-9-9----|x2
D|-9-9-9-9-9-9-x1-7-7-7-7-7-7-----7-7-7-7-7-7----|
A|-7-7-7-7-7-7-----------------------------------|
E|-----------------------------------------------|
   > > ^ ^ > ^    > > ^ > > ^     > > ^ ^ > ^
I'm soaring...


 Intro
e|----------------------------------------------|
B|----------------------------------------------|
G|-9-9-9-9-9-9-------------------4-4-4-4-4-4----|
D|-9-9-9-9-9-9-x2-5-5-5-5-5-5----4-4-4-4-4-4-x1-| x1
A|-7-7-7-7-7-7----5-5-5-5-5-5-x1-2-2-2-2-2-2----|
E|----------------3-3-3-3-3-3-------------------|
   > > ^ ^ > ^    > > ^ ^ > ^    > > ^ ^ > ^


Verse2

e|----------------------------------------------|
B|----------------------------------------------|
G|-9-9-9-9-9-9-------------------4-4-4-4-4-4----|
D|-9-9-9-9-9-9-x2-5-5-5-5-5-5----4-4-4-4-4-4-x1-|
A|-7-7-7-7-7-7----5-5-5-5-5-5-x1-2-2-2-2-2-2----|
E|----------------3-3-3-3-3-3-------------------|
   > > ^ ^ > ^    > > ^ ^ > ^    > > ^ ^ > ^
Just look in my eyes...

e|----------------------------------------------|
B|----------------------------------------------|
G|-9-9-9-9-9-9-------------------4-4-4-4-4-4----|
D|-9-9-9-9-9-9-x2-5-5-5-5-5-5----4-4-4-4-4-4-x1-|
A|-7-7-7-7-7-7----5-5-5-5-5-5-x1-2-2-2-2-2-2----|
E|----------------3-3-3-3-3-3-------------------|
   > > ^ ^ > ^    > > ^ ^ > ^    > > ^ ^ > ^
I can see farther now..

e|----------------------------------------------|
B|----------------------------------------------|
G|-6-6-6-6-6-6-------------------4-4-4-4-4-4----|
D|-6-6-6-6-6-6-x2-5-5-5-5-5-5----4-4-4-4-4-4-x1-|
A|-3-3-3-3-3-3----5-5-5-5-5-5-x1-2-2-2-2-2-2----|
E|----------------3-3-3-3-3-3-------------------|
   > > ^ ^ > ^    > > ^ ^ > ^    > > ^ ^ > ^
Don't know where im gonna land...

Chorus 2

e|-----------------------------------------------|
B|----------------9-9-9-8-8-8-----9-9-9-9-9-9----|
G|-9-9-9-9-9-9----9-9-9-9-9-9-x1--9-9-9-9-9-9----|x2
D|-9-9-9-9-9-9-x1-7-7-7-7-7-7-----7-7-7-7-7-7----|
A|-7-7-7-7-7-7-----------------------------------|
E|-----------------------------------------------|
   > > ^ ^ > ^    > > ^ > > ^     > > ^ ^ > ^
I'm soaring...

e|-----------------------------------------------|
B|----------------9-9-9-8-8-8-----9-9-9-9-9-9----|
G|-9-9-9-9-9-9----9-9-9-9-9-9-x1--9-9-9-9-9-9----|x2
D|-9-9-9-9-9-9-x1-7-7-7-7-7-7-----7-7-7-7-7-7----|
A|-7-7-7-7-7-7-----------------------------------|
E|-----------------------------------------------|
   > > ^ ^ > ^    > > ^ > > ^     > > ^ ^ > ^
I'm soaring...

Slowly fade out..

Thats it if theres any question email me and this tab is 100%..
Comments