Switchfoot - We Are One Tonight Chords & Tabs

 

We Are One Tonight Chords & Tabs

Switchfoot Chords & Tabs

Version: 2 Type: Tab 0 ratings
1 star 2 stars 3 stars 4 stars 5 stars
comments

We Are One Tonight Tab

-We Are One Tonight

Song from Switchfoot's new album "Nothing Is Sound".
Well ive never tabbed anything before but i felt like doing this one.
This song is really kool! Im not sure about this tab though.

Tuning - EADGBE


Intro

Gtr1

E----------------------------------------------------------------|
B--8---8---8----------------8---8---8----------------------------|
G----7---5-5--4--2--0---------7---5-5--4--2--0-------------------| (x3)
D----------------------------------------------------------------|
A----------------------------------------------------------------|
E----------------------------------------------------------------|

Gtr 2 (0:07)

E----------------------------------------------------------------|
B--8-------3----8--------5---------------------------------------|
G--7-------2-or-7--------4-or-9--------5-------------------------| (x2)
D--5-------0----x--------2----x--------x-------------------------|
A---------------5-------------7--------3-------------------------|
E----------------------------------------------------------------|

Verse 1 (0:22)

E----------------------------------------------------------------|
B--8-x---------------8-x---------------(8)---(8)-----------------|
G--7-x--repeat-------7-x--repeat---------(7)---(7)---------------|
D--5-x---------------x-x-----------------------------------------|
A--------------------5-x-----------------------------------------|
E----------------------------------------------------------------|


Pre-Chorus
[ Tab from: http://www.guitartabs.cc/tabs/s/switchfoot/we_are_one_tonight_tab_ver_2.html ]
E----------------------------------------------------------------|
B----------------------------------------------------------------|
G--11----------------7-------------------------------------------| (x2)
D--x-----------------5-------------------------------------------|
A--9-----------------3-------------------------------------------|
E----------------------------------------------------------------|


Chorus

E----------------------------------------------------------------|
B--8-------0-------5---------------------------------------------|
G--7-------2-------4-------7-------------------------------------|
D--5-------3-------2-------5-------------------------------------|
A--------------------------3-------------------------------------|
E----------------------------------------------------------------|

(repeat verse 1)
(reapeat Pre-Chorus)
(repeat Chorus)

Pre-Chorus  (???)

E----------------------------------------------------------------|
B--7---7---7---7---5---5---5---5---------------------------------|
G----7--7----7--7----0--0----0---0-------------------------------|
D------------------5---------------------------------------------|
A--9-------9-----------------------------------------------------|
E----------------------------------------------------------------|

E----------------------------------------------------------------|
B--7---7---7---7---5---5---5---5-----5---------------------------|
G----7--7----7--7----0--0----0--0----4---------------------------|
D------------------5-----------------5---------------------------|
A--9-------9-------------------------3---------------------------|
E----------------------------------------------------------------|

??? (Acoustic)

E----------------------------------------------------------------|
B--8------8------5-----------------------------------------------|
G--7------7------4------7----------------------------------------|
D--5------x------2------5----------------------------------------|
A---------5-------------3----------------------------------------|
E----------------------------------------------------------------|

Repeat Chorus....
Comments