Switchfoot - We Are One Tonight Chords & Tabs

 

We Are One Tonight Chords & Tabs

Switchfoot Chords & Tabs

Version: 1 Type: Tab 0 ratings
1 star 2 stars 3 stars 4 stars 5 stars
comments

We Are One Tonight Tab

Intro:
e--------------------------|
B--------------------------|
G-12-----12----12----------|
D-----12----10----9--------|
A--------------------12-10-|
E--------------------------| x6 first time

Verse: This should be played ska like, over and over til the pre-chorus.
-------|
-------|
-12-12-|
-12-12-|
-10-10-|
-------|

Pre-chorus
Strumming not Included!
----------|
----------|
----------|
-12-14-10-|
-12-14-10-|
-10-12-8-|
[ Tab from: http://www.guitartabs.cc/tabs/s/switchfoot/we_are_one_tonight_tab.html ]
Chorus:
The intro is repeated through the chorus, but this is also played: Strumming not included!
---------------------------------------------|
---------------------------------------------|
-12-----11---9-------------------------------|
-12-----12---9-------------------------------|
-10-----12---7-------------------------------|
--------10-----------------------------------|
 We are one tonight, and we're singing it out

Intro twice after the chorus
Verse
Chorus is played through the rest of the song.
Comments