Switchfoot - We Are One Tonight Chords & Tabs

 

We Are One Tonight Chords & Tabs

Switchfoot Chords & Tabs

Version: 1 Type: Bass Tab

We Are One Tonight Bass Tab

We are One – Switchfoot

Tabbed by: Drew Fish
E-mail: microfish89@yahoo.com

Tuning: Drop E to D

Intro
G|---------------|
D|---------------|
A|-----5-7--7-3--|
D|--5------------|(x2)

Verse 1
G|----------------------------------------------------------|
D|---------------------45----------------------------45-----|
A|--02---233--023202-----333--023202---333--023202-----333--|
D|----2-------------2---------------2-------------2---------|

Pre-Chorus
G|------------------------------|
D|------------------------------|
A|--/5--57--73--35--57--73--33--|
D|------------------------------|

Chorus
G|---------------------------------------|
D|---------------------------------------|
A|-----------55555555-77777777-33333333--|
D|--55555555-----------------------------|(x2)
	
G|---------------------------------------|
D|---------------------------------------|
A|-----------55555555----------33333333--|
D|--55555555----------22222222-----------|
[ Tab from: http://www.guitartabs.cc/tabs/s/switchfoot/we_are_one_tonight_btab.html ]
G|---------------------------------------|
D|---------------------------------------|
A|-----------55555555-77777777-33333333--|
D|--55555555-----------------------------|(x2)

Verse 2
G|----------------------------------------------------------|
D|---------------------45----------------------------45-----|
A|--02---233--023202-----333--023202---333--023202-----333--|
D|----2-------------2---------------2-------------2---------|

Outro
G|---------------------------------------|
D|---------------------------------------|
A|-----------55555555-77777777-33333333--|
D|--55555555-----------------------------|(x4)

G|-----------------------------------------------|
D|-----------------------------------------------|
A|-----------------------------------------------|
D|--55555555-77777777-99999999-1010101010101010--|

G|---------------------------------------|
D|---------------------------------------|
A|-----------55555555-77777777-33333333--|
D|--55555555-----------------------------|(x2)

Order
Intro
Verse 1
Pre-Chorus
Chorus
Verse 2
Pre-Chorus
Chorus
Pre-Chorus (x2)
Outro

Bass in @ 0:08
Bass doesn’t play from 3:23 to 3:38