Switchfoot - This Is Your Life Chords & Tabs

 

This Is Your Life Chords & Tabs

Switchfoot Chords & Tabs

Version: 1 Type: Bass Tab 0 ratings
1 star 2 stars 3 stars 4 stars 5 stars
comments

This Is Your Life Bass Tab

This is your life


Intro/Verse/Outro
G|-----------9----------9--------13--------------------------------|
D|--11---11-----11---11---11--11---11------------------------------|
A|---------------------------12------------------------------------|
E|-----9-----------9-----------------------------------------------|
[ Tab from: http://www.guitartabs.cc/tabs/s/switchfoot/this_is_your_life_btab.html ]
G|-----------9----------9--------13--------------------------------|
D|--11---11-----11---11---11--11---11------------------------------|
A|---------------------------12------------------------------------|
E|-----9-----------9-----------------------------------------------|

HEY JUST KIDDING GUYS I MISLABLED THIS IT'S SUPPOSED TO BE THE CHORUS!
I don't know maybe I was high or something?

CHORUS
G----------------------|
D----------------------|
A--0h2------------0h2--|
E-0--0-2-0-0-2-0--0----| x2

Fun and simple
Comments