Switchfoot - Stars Chords & Tabs

 

Stars Chords & Tabs

Switchfoot Chords & Tabs

Version: 1 Type: Tab 3 ratings
1 star 2 stars 3 stars 4 stars 5 stars
comments

Stars Tab

SwitchFoot

Song :  STARS
Tuning:  Drop D
Tabbed by:  Jeff Martin  
/=Slide

Intro (Riff 1) Part 1 

Guitar 1
e---------------------------------------------------------------|
b---------------------------------------------------------------|
g--------6/7-----11----9-----13/16-14-----6/7----11-----9-999---|  (2x)
d---------------------------------------------------------------|
a--0-0-0-4/5-0-0-9-0-0-7-0-0-11/14-12-0-0-4/5-0-0-9-0-0-7-777---|
d--0-0-0-----0-0---0-0---0-0----------0-0-----0-0---0-0---------|

Guitar 2
Open d-a-d through out Part 1 (follow same progression as Guitar 1)

e----------------------|
b----------------------|
g----------------------| (2X)
d—-0-0-0---------------|
a—-0-0-0---------------|
d—-0-0-0---------------|

Intro (Riff 2) Part 2
Guitar 1

e----------------------------------------------------------------|
b----------------------------------------------------------------|
g--------6/7----11-------9-----6/7-------6/7----11-------9-999---|  (2x)
d----------------------------------------------------------------|
a—-0-2-0-4/5-0-0-9-0-0-0-7-0-0-4/5-0-2-0-4/5-0-0-9-0-0-0-7-777---|
d—-0-2-0-----0-0---0-0-0---0-0-----0-2-0-----0-0---0-0-0---------|

Guitar 2

e----------------------------------------------------------------|
b----------------------------------------------------------------|
g----------------------------------------------------------------|  (2X)
d—-0-2-0-----0-7---0-4-5---0-2-----0-2-0-----0-7----0-4-5--------|
a—-0-2-0-----0-7---0-4-5---0-2-----0-2-0-----0-7----0-4-5--------|
d--0-2-0-----0-7---0-4-5---0-2-----0-2-0-----0-7----0-4-5--------|

Verse (Riff 3)

Guitar 1 only
e---------------------------------------------------|
b---------------------------------------------------|
g--7777-7777------7777-------------7777------7777---| (x2)
d--7777-7777-9999-7777-10.10.10.10-7777-7777-7777---|
a--5555-5555-9999-5555-10.10.10.10-5555-7777-5555---|
d------------9999------10.10.10.10------7777--------|

Pre-Chorus (Riff 4)

Guitars 1-2 (Let each chord ring)

e-------------------|
b-------------------|
g--7----------------|
d--7---7---9---10---|
a--5---7---9---10---|
d------7---9---10---|

Chorus (Riff 5) 

Guitar 1

e-------------------------------------------------|
b-------------------------------------------------|
g--11-11-11-9-77--11-11-11-9-77--11-11-11-9-7-----|
d----------------0--------------5-------------7---|  (cont)
a--9--9--9--7-55-0-9--9--9-7-55-5-9--9--9-7-5-7---|
d----------------0--------------5-------------7---|

Guitar 2

e--------------------------------------------------|
b--------------------------------------------------|
g--------------------------------------------------|  (cont)
d—-0-0-0-0-0-0-0-0-5-5-5-5-5-5-5-9-9-9-9-9-9-9-7---|
a--0-0-0-0-0-0-0-0-5-5-5-5-5-5-5-9-9-9-9-9-9-9-7---|
d--0-0-0-0-0-0-0-0-5-5-5-5-5-5-5-9-9-9-9-9-9-9-7---|
[ Tab from: http://www.guitartabs.cc/tabs/s/switchfoot/stars_tab.html ]
Guitar 1

e--------------------------------------------------------------|
b--------------------------------------------------------------|
g--------6/7-----11------9-999-11-11-11-9-77--11-11-11-9-7-----|
d--------------------------------------------5-------------7---|
a--0-2-0-4/5-0-0-9-0-0-0-7-777--9--9--9-7-55-5-9--9--9-7-5-7---|
d--0-2-0-----0-0---0-0-0---------------------5-------------7---|

Guitar 2

e---------------------------------------------------------------|
b---------------------------------------------------------------|
g---------------------------------------------------------------|
d—-0-2-0-----0-7---0-4-5--------5-5-5-5-5-5-5-5-9-9-9-9-9-9-7---|
a—-0-2-0-----0-7---0-4-5--------5-5-5-5-5-5-5-5-9-9-9-9-9-9-7---|
d--0-2-0-----0-7---0-4-5--------5-5-5-5-5-5-5-5-9-9-9-9-9-9-7---|


Then:

Riff 2 (1X)
Riff 3 (2X)
Riff 4 (1X)
Riff 5 (1X)
Riff 2 (1X)

Bridge (Riff 6)

e-----------------------------------------|
b-----------------------------------------|
g-----------------------------------------|
d--5---7---4---5---------5---7---9---10---|
a--5---7---4---5---------5---7---9---10---|
d--5---7---4---5---------5---7---9---10---|

“…stars....”

Guitar 1`

E---------------------------------------------------------------------------------------|
B---------------------------------------------------------------------------------------|
G-------------------------------------6/7----11-------9-999-----------------------------|
D---10-10-10-10-10-10-5-5-5-5-------------------------------5-5-5-5-5-5-5-5-2-2-2-2-7---|
A---10-10-10-10-10-10-5-5-5-5---0-2-0-4/5-0-0-9-0-0-0-7-777-5-5-5-5-5-5-5-5-2-2-2-2-7---|
D---10-10-10-10-10-10-5-5-5-5---0-2-0-----0-0---0-0-0-------5-5-5-5-5-5-5-5-2-2-2-2-7---|

Guitar 2

e---------------------------------------------------------------------------------------|
b---------------------------------------------------------------------------------------|
g---------------------------------------------------------------------------------------|
d---10-10-10-10-10-10-5-5-5-5---0-2-0------0-7---0-4-5------5-5-5-5-5-5-5-5-2-2-2-2-7---|
a---10-10-10-10-10-10-5-5-5-5---0-2-0------0-7---0-4-5------5-5-5-5-5-5-5-5-2-2-2-2-7---|
d---10-10-10-10-10-10-5-5-5-5---0-2-0------0-7---0-4-5------5-5-5-5-5-5-5-5-2-2-2-2-7---|

Follow with:

Riff 2 (2X) But…. ***END ON D***

Add this fill:

Guitar 2 or (3)

Very fast, hit each chord 4x, mute middle d, let the last note ring out.  
Listen for the chord changes…
***Play at start of the 2nd loop of riff 2.

e----------------------------------|
b----------------------------------|
g---16—14—21—19—10—12—14—12—11-----|
d----------------------------------|
a---14—12—19—17—12—10—12—10—9------|
d----------------------------------|

Cool tune!  Enjoy... they made me work to get this posted!  
All the better... for sure!




Comments