Switchfoot - Redemption Chords & Tabs

 

Redemption Chords & Tabs

Switchfoot Chords & Tabs

Version: 1 Type: Bass Tab 0 ratings
1 star 2 stars 3 stars 4 stars 5 stars
comments

Redemption Bass Tab

Switchfoot~Redemption
From the album The Beautiful Letdown (AWESOME cd btw)
Tabbed by Switchchick0610
SWITCHFOOT ROCKS!!

I tried really hard to get every note. Enjoy!
**The E string IS dropped to D!!!***

Intro there is NO bass

Verse 					1st ending
G|---------------------------------|----------------------------------------|
D|-----------------------0h2-------|----------------------------------------|
A|-----------00---0h22---------4/3-|--0/-2-2--2222--------------------------|
D|--0-22---4-----------------------|-----------------4-4--4444---2-2--2222--|

Play first part ^^^ x1 then...

2nd ending
G|-----------------------|
D|-----------------------|
A|---2/-14>-/-2>-/-14----|
D|-----------------------|

[ Tab from: http://www.guitartabs.cc/tabs/s/switchfoot/redemption_btab.html ]
Chorus		              1st	   2nd
G|------------------------|-------|-------|---------------------------------|
D|------------------------|-------|-------|---------------------------------|
A|-----5-4----2-0----0-0--|---2---|---3---|--4-4-4444----2-2-2222----0>-2---|
D|--2---------------------|-------|-------|---------------------------------|

"Alive"
G|---------------------------|
D|------------------0--2-----|
A|---------0---2-------------|     x2
D|--2---4--------------------|

*Rest*

*Verse BUT with only 2nd ending*

*Chorus*

*"Alive" x1 then...*
G|------------------------------|
D|---------------------0--------|
A|-----------0----2--------3----|
D|--2----4----------------------|

*Then "Alive" x2**

Bridge			     
G|-----------------|---------|--------------|-------|--------|
D|-----------------|---------|--------------|-------|--------|
A|---18-19---14----|---7-7---|---18h19--7---|--7-7--|---2~---|
D|-----------------|---------|--------------|-------|--------|

*Chorus x2*
*"Alive" x2*

End on
G|----------|
D|----------|
A|----------|
D|-----2----|

Thats it. I hope you enjoy it!
Comments