Switchfoot - Only Hope Chords & Tabs

 

Only Hope Chords & Tabs

Switchfoot Chords & Tabs

Version: 1 Type: Tab 0 ratings
1 star 2 stars 3 stars 4 stars 5 stars
comments

Only Hope Tab

   
Band: Switchfoot
From CD- New Way to be Human
Tabbed by- K E P
  This is almost 100% right This tab is all over the net but no one 
has it right. This is what I came up with.

CHORDS:
 E  B  A  C9  C#m7  G  D  Em   F#7
-0--2--0---0----4---3--2---0----2------
-0--4--2---3----5---3--3---0----2------
-1--4--2---0----4---0--2---0----3------
-2--4--2---2----6---0--0---2----2------
-2--2--0---3----4---2------2----4------
-0-----0--------4---3------0----2------
[ Tab from: http://www.guitartabs.cc/tabs/s/switchfoot/only_hope_tab.html ]
INTRO:
--10-12----------10----
--------------12-------
--------12-11----------
-----------------------
-----------------------
-----------------------


------------------------------------------------------
------------------------------------------------------
------7-9---7-7-7-------------------------------------
----9-----9-------10-9-9-7----------------------------
--7------------------------10-7-9-10-9-7--------------
-----------------------------------------11-----------

--------------------------------------------------------
--------------------------------------------------------
------7------7-7-7--------------------------------------
----9---10-9-------10-9-9-7-----------------------------
--7-------------------------10-7-9-10-9-7----7----------
------------------------------------------11------------
Comments