Switchfoot - Only Hope Chords & Tabs

 

Only Hope Chords & Tabs

Switchfoot Chords & Tabs

Version: 2 Type: Chords 0 ratings
1 star 2 stars 3 stars 4 stars 5 stars
comments

Only Hope Chords

   
ONLY HOPE
Switchfoot

johnsantos_17@yahoo.com

  Em  Bm  G   C   B
E-0---2---3---0---2--
B-0---3---3---1---4--
G-0---4---0---0---4--
D-2---4---0---2---4--
A-2---2---2---3---2--
E-0-------3----------

  E Emaj7 A  Am  C#m
E-0---0---0---0---4---
B-0---0---2---1---5---
G-1---1---2---2---6---
D-2---1---2---2---6---
A-2---2---0---0---4---
E-0---0---------------

Intro: (play it 2x)
[ Tab from: http://www.guitartabs.cc/tabs/s/switchfoot/only_hope_crd_ver_2.html ]
E-------------------------------------------------------------------
B-------------------------------------------------------------------
G-----------7--9--4----7--7--7\5--4---4\2--0------------------------
D------7/9----------------------------------------2--4--5--4--0--2--
A-2/7---------------------------------------------------------------
E-------------------------------------------------------------------

This is played during intro..
Em  Bm  G  Em  G  Em  C  B

Verse1:
There's a song...

(Em  Bm  G C  B) x4

Chorus:
So i lay...

E  EM7 A Am
E  EM7 A Am
C#m B
G  B

Verse2:
(Em  Bm  G C  B) x4

Chorus:

E  EM7 A Am
E  EM7 A Am
C#m B
G  B

Bridge:
I give you...
(G  Em) x3
(A  B) x3

Chorus:
E  EM7 A Am
E  EM7 A Am
C#m B (3x)
G  B

End on Em.
Comments