Switchfoot - New Way To Be Human Chords & Tabs

 

New Way To Be Human Chords & Tabs

Switchfoot Chords & Tabs

Version: 2 Type: Tab 0 ratings
1 star 2 stars 3 stars 4 stars 5 stars
comments

New Way To Be Human Tab

   
Tabbed By: Ben
This song is in 4/4 time, just in case you want to know.
Standard tuning
You will have to listen to the song to get the timing. 

Intro: (clean)
E-------|----------| Then, play Riff A 4 times
B-------|----------|
G-------|----------|
D-------|----------|
A-2--2--|-2--0-1-2-|
E-------|----------|

Riff A: (clean)
E-----------|---------------|
B-----------|---------------|
G-----------|---------------|
D-2-x-5-5-x-|-5-5-x-5-------|
A-2-x-5-5-x-|-5-5-x-5-0-1-2-|
E-0-x-3-3-x-|-3-3-x-3-------|

Verse 1: (clean) Play Riff A 8 times

Gtr. 2 rests for 6 measures then play some 
stuff involving the open B string and some
natural harmonics* on the fifth fret of the same string.
there might also be some rakes or something like that in there.
Anyway, Idon't know it well enough to tab it for you.(sorry)

Prechorus: (w/ distortion and pan modulation)
E----|----|---|----|----|----|----|----|
B----|----|---|----|----|----|----|----|
G----|----|2--|----|----|----|-2--|----|
D-2--|-3--|2--|-3--|-2--|-3--|-2--|-3--|
A-2--|-3--|0--|-3--|-2--|-3--|-0--|-3--|
E-0--|-1--|---|-1--|-0--|-1--|----|-1--|

Chorus:Play Riff B 3 times
Riff B (distorted)
E------------|------------|
B------------|------------|
G------------|-5-5--------|
D-7-6-7--3-3-|-5-5--5-5-6-|
A-7-6-7--3-3-|-3-3--5-5-6-|
E-5-4-5--1-1-|------3-3-4-|

Then play:
E------------|------------|
B------------|------------|
G------------|-5-5--------|  Let that last "2" ring until it
D-7-6-7--3-3-|-5-5--------|  fades away.
A-7-6-7--3-3-|-3-3--0-1-2-|
E-5-4-5--1-1-|------------|

With that 2 still ringing, rest for 4 measures.

Verse 2:Riff A 4 times
[ Tab from: http://www.guitartabs.cc/tabs/s/switchfoot/new_way_to_be_human_tab_ver_2.html ]
Play the prechorus again

Chorus 2: Riff B 7+1/2 times
Then play:
E---------|
B---------|
G-5-5-5-5-|
D-5-5-5-5-|
A-3-3-3-3-|
E---------|

Bridge:(dist.)
E----|----|----|----|----|----|----|----|
B----|----|----|----|----|----|----|----|
G-7--|----|----|----|----|----|----|----|
D-7--|----|----|----|-0--|----|----|----|
A-5--|----|----|----|----|----|----|----|
E----|----|----|----|----|----|----|----|
 Let ring            Let ring

Last Chorus:(dist.)
E---------|-----------|------------|-----------|
B---------|-----------|------------|-----------|
G---------|-5-5-------|------------|-5-5-------| Repeat once
D-7-7-3-3-|-5-5-5-5-6-|-7-6-7--3-3-|-5-5-5-5-6-|
A-7-7-3-3-|-----5-5-6-|-7-6-7--3-3-|-----5-5-6-|
E---------|-----------|------------|-----------|

Gtr. 2
E----|----|------------|----|----|----|---------|-----------------|
B----|----|-3h5b(6)r-3-|-1--|----|----|-11b(13)-|-----------------|
G----|----|------------|----|----|----|---------|-11b(12)-12b(13)-|
D----|----|------------|----|----|----|---------|-----------------|
A----|----|------------|----|----|----|---------|-----------------|
E----|----|------------|----|----|----|---------|-----------------|

Then play Riff C 8 times
Riff C (Dist.)
E---------------|-------------|
B---------------|-------------|
G---------------|-5-5-x-------|
D-7-6-7-x-3-3-x-|-5-5-x-5-5-6-|
A-7-6-7-x-3-3-x-|-3-3-x-5-5-6-|
E-5-4-5-x-1-1-x-|-------3-3-4-|

Then,
E--------|
B--------|
G--------|  Let the last chord ring
D-7-6-7--|
A-7-6-7--|
E-5-4-5--|

There is another guitar(dist.) playing during verse two,
but I haven't figured that out yet.I'll probably post it soon. 
That's the end.
Comments