Switchfoot - More Than Fine Chords & Tabs

 

More Than Fine Chords & Tabs

Switchfoot Chords & Tabs

Version: 1 Type: Tab 0 ratings
1 star 2 stars 3 stars 4 stars 5 stars
comments

More Than Fine Tab

   
Tuning- Drop D

D5    00023x
G/B   x2003x
Csus2 x3x03x
D5/F  3x023x
E7    2x0130
Cadd9 x3203x


 Intro
                                                  D5
  (synth intro if you care)                       Gtr I
|-10-----10-----|-10-----22----|---------|------------|
|---------------|--------------|---------|------------|
|---------------|--------------|---------|--------2---|
|---------------|--------------|---------|--------0---|
|---------------|--------------|---------|--------0---|
|---------------|--------------|---------|--------0---|

  [Main Riff]
    D5            G/B                    2x
||------------------|--------------------||
||o-----3-----3-----|------3------------o||
||------2---2-2-2-0-|------0------0------||
||------0---0-0-0-0-|------0---0--x-0----||
||o-0---0---0---0-2-|------2---2--3-2-0-o||
||--0---------------|--------------------||


 Verses 1 & 2
 o Play Main Riff 2x, then:

 [Verse Riff B]
  D5/F        E7                    G/B
|---------------|-----------------|---------------|-----------------||
|----3----3---3-|------3--3-3-3-3-|----3--3-3-3-3-|------3--3-3-3-3-||
|----2--2-2-2-1-|------1--1-1-1-1-|----0--0-0-0-0-|------0--0-0-0-0-||
|----0--0-0-0-0-|------0--0-0-0-0-|----x--x-x-x-x-|------x--x-x-x-x-||
|---------------|-----------------|-2--2--2-2-2-2-|------2--2-2-2-2-||
|-3-----3-3-3---|------2--2---2---|---------------|-----------------||

 o Play Main Riff 4x, then Verse Riff B, then Main Riff 2x


 Pre-Chorus
  Cadd9                         D5            G/B
|---------------|-------------|-----------------|-------------------|
|-3-3-3---3-3-3-|---3--3-3-3--|-----3-----3-----|------3------------|
|-0-0-0---0-0-0-|---0--0-0-0--|-----2---2-2-2-0-|------0------0-----|
|-2-2-2---2-2-2-|---2--2-2-2--|-----0---0-0-0-0-|------0---0--x-0---|
|-3-3-3---3-3-3-|---3--3-3-3--|-----0---0---0-2-|------2---2--3-2-0-|
|---------------|-------------|-0---------------|-------------------|

  Cadd9                         E7
|---------------|-------------|-0-0-0-0-0-0-0-0-|-0-0-0-0-0-0-0-0-||
|-3-3-3---3-3-3-|---3--3-3-3--|-3-3-3-3-3-3-3-3-|-3-3-3-3-3-3-3-3-||
|-0-0-0---0-0-0-|---0--0-0-0--|-1-1-1-1-1-1-1-1-|-1-1-1-1-1-1-1-1-||
|-2-2-2---2-2-2-|---2--2-2-2--|-0-0-0-0-0-0-0-0-|-0-0-0-0-0-0-0-0-||
|-3-3-3---3-3-3-|---3--3-3-3--|-----------------|-----------------||
|---------------|-------------|-----------------|-----------------||


 Chorus 1
 [Chorus Riff A]                                       end Chorus Riff A
  G5            A                     G5            A
|-----------------|-----------------|-----------------|----------------|
|-----3-----3---2-|-----2---2-2-2-2-|-----3-----3---2-|----2---2-2-2-2-|
|-----0---0-0-0-2-|-----2---2-2-2-2-|-----0---0-0-0-2-|----2---2-2-2-2-|
|-0---0---0-0-0-2-|-----2---2-2-2-2-|-0---0---0-0-0-2-|----2---2-2-2-2-|
|---------------0-|---------0---0---|---------------0-|--------0---0---|
|-5---5---5---5---|-----------------|-5---5---5---5---|----------------|
|
| Gtr II
|-----2-----2-----|-----0-------0---|-----2-----2-----|----0---3-2-0----|
|---3---3-----3---|---3---3---3---3-|---3---3-----3---|--3---3-------3--|
|-0-------0-----2-|---------2-------|-0-------0-----2-|-----------------|
|-----------------|-----------------|-----------------|-----------------|
|-----------------|-----------------|-----------------|-----------------|
|-----------------|-----------------|-----------------|-----------------|


  G5            A
|-----------------|----------------|
|-----3-----3---2-|----2---2-2-2-2-|
|-----0---0-0-0-2-|----2---2-2-2-2-|
|-0---0---0-0-0-2-|----2---2-2-2-2-|
|---------------0-|--------0---0---|
|-5---5---5---5---|----------------|
|
|-----2-----2-----|----0-----0-----|
|---3---3-----3---|--3---3-----3---|
|-0-------0-----2-|--------2-------|
|-----------------|----------------|
|-----------------|----------------|
|-----------------|----------------|
|
|
Gtr V (accordian)
|-----------------|----------5-----|
|-----------------|------------7-5-|
|-----------------|----------------|
|-----------------|----------------|
|-----------------|----------------|
|-----------------|----------------|


  o Gtr I plays Main Riff 2x over:
|-----0-----0-----|-----0-----0-----|-----0-----0-----|----0-------0----|
|---3---3-----3---|---3---3-----3---|---3---3-----3---|--3---3---3---3--|
|-2-------2-----0-|---------0-------|---------------0-|--------0--------|
|-----------------|---------------4-|---------4-------|-----------------|
|-----------------|-----------------|-----------------|-----------------|
|-----------------|-----------------|-----------------|-----------------|
|
|-----------------|-----------5-----|-----------------|----------------|
|-----------7-----|-------------7-5-|-----------7-----|----------------|
|-------------7---|-----------------|-------------7---|----------------|
|---------------7-|-----------------|---------------7-|----------------|
|-----------------|-----------------|-----------------|----------------|
|-----------------|-----------------|-----------------|----------------|


 Verse 3
 o Play Main Riff 2x, Verse Riff B, Main Riff 2x

 Pre-Chorus 2
 o same as first Pre-Chorus


 Chorus 2
 o Play Chorus Riff A, then:

  G5            A                   D5             G/B
|-----------------|----------------|-----------------|----------------|
|-----3-----3---2-|----2---2-2-2-2-|-----3-----3-----|----3-----------|
|-----0---0-0-0-2-|----2---2-2-2-2-|-----2---2-2-2-0-|----0-----0-----|
|-0---0---0-0-0-2-|----2---2-2-2-2-|-----0---0-0-0-0-|----0---0-x-0---|
|---------------0-|--------0---0---|-0---0---0---0-2-|----2---2-3-2-0-|
|-5---5---5---5---|----------------|-0---------------|----------------|
|
|-----2-----2-----|----0-------0---|-----0-----0-----|----0-----0-----|
|---3---3-----3---|--3---3---3---3-|---3---3-----3---|--3---3-----3---|
|-0-------0-----2-|--------2-------|-2-------2-----0-|--------0-----0-|
|-----------------|----------------|-----------------|----------------|
|-----------------|----------------|-----------------|----------------|
|-----------------|----------------|-----------------|----------------|




o Play Chorus Riff A again, then:
[ Tab from: http://www.guitartabs.cc/tabs/s/switchfoot/more_than_fine_tab.html ]
  G5            A                   D5             G/B
|-----------------|----------------|-----------------|----------------|
|-----3-----3---2-|----2---2-2-2-2-|-----3-----3-----|----3-----------|
|-----0---0-0-0-2-|----2---2-2-2-2-|-----2---2-2-2-0-|----0-----0-----|
|-0---0---0-0-0-2-|----2---2-2-2-2-|-----0---0-0-0-0-|----0---0-x-0---|
|---------------0-|--------0---0---|-0---0---0---0-2-|----2---2-3-2-0-|
|-5---5---5---5---|----------------|-0---------------|----------------|
|
|-----2-----2-----|----0-------0---|-----0-----0-----|----0-----0-----|
|---3---3-----3---|--3---3---3---3-|---3---3-----3---|--3---3-----3---|
|-0-------0-----2-|--------2-------|-2-------2-----0-|--------0-------|
|-----------------|----------------|-----------------|--------------4-|
|-----------------|----------------|-----------------|----------------|
|-----------------|----------------|-----------------|----------------|


  D5               G/B
|--------------------|------------------||
|------3-------3-----|----3-------------||
|------2----2--2-2-0-|----0-------0-----||
|------0----0--0-0-0-|----0----0--x-0---||
|--0---0----0----0-2-|----2----2--3-2-0-||
|--0-----------------|------------------||
|
|------0-------0-----|----0---------0---||
|----3---3-------3---|--3---3-----3---3-||
|------------------0-|---------0--------||
|-----------4--------|------------------||
|--------------------|------------------||
|--------------------|------------------||
|
|                     Gtr III
|                      < fdbk
|--------------------|-14---------------||
|--------------------|------------------||
|--------------------|------------------||
|--------------------|------------------||
|--------------------|------------------||
|--------------------|------------------||


 Bridge
  Gtr III                                                            7x
|---------------|----------------||----------------|-----------------||
|---------------|----------------||o---------------|----------------o||
|-7-7--5-7-7--5-|-7-7--5-7-7-5---||--5-7--5-7-7--5-|-7-7--5-7-7-5----||
|---------------|----------------||----------------|-----------------||
|-5-5--3-5-5--3-|-5-5--3-5-5-3-0-||o-3-5--3-5-5--3-|-5-5--3-5-5-3-0-o||
|---------------|----------------||----------------|-----------------||


 Breakdown
|--------------|-------------|--------------|-------------|
|------------2-|--2----2-----|--------------|-------------|
|-4--4--4-4--2-|--2-2--2--2--|-4--4--4-4--6-|--6-6--6--6--|
|-4--2--2-4----|----4-----4--|-4--2--2-4--5-|--5-4--5--4--|
|--------------|-------------|--------------|-------------|
|--------------|-------------|--------------|-------------|


                               D5              G/B
|--------------|-------------|-----------------|-------------------||
|--------------|-------------|-----3-----3-----|-----3-------------||
|--------------|-------------|-----2---2-2-2-0-|-----0-------0-----||
|--------------|-------------|-----0---0-0-0-0-|-----0----0--x-0---||
|--------------|-------------|-0---0---0---0-2-|-----2----2--3-2-0-||
|--------------|-------------|-0---------------|-------------------||
|
|
|--------------|-------------|-----0-----0-----|-----2----3--2-0---||
|------------2-|--2----2-----|---3---3-----3---|---3---3---------3-||
|-4--4--4-4--2-|--2-2--2--2--|-2-------2-----0-|-------------------||
|-4--2--2-4----|----4-----4--|-----------------|-------------------||
|--------------|-------------|-----------------|-------------------||
|--------------|-------------|-----------------|-------------------||


 Out-Chorus
  G5            A                     G5            A
|-----------------|-----------------|-----------------|----------------|
|-----3-----3---2-|-----2---2-2-2-2-|-----3-----3---2-|----2---2-2-2-2-|
|-----0---0-0-0-2-|-----2---2-2-2-2-|-----0---0-0-0-2-|----2---2-2-2-2-|
|-0---0---0-0-0-2-|-----2---2-2-2-2-|-0---0---0-0-0-2-|----2---2-2-2-2-|
|---------------0-|---------0---0---|---------------0-|--------0---0---|
|-5---5---5---5---|-----------------|-5---5---5---5---|----------------|
|
| Gtr II
|-----2-----2-----|-----0-------0---|-----2-----2-----|----0---3-2-0---|
|---3---3-----3---|---3---3---3---3-|---3---3-----3---|--3---3-------3-|
|-0-------0-----2-|---------2-------|-0-------0-----2-|----------------|
|-----------------|-----------------|-----------------|----------------|
|-----------------|-----------------|-----------------|----------------|
|-----------------|-----------------|-----------------|----------------|


  G5            A                   D5             G/B
|-----------------|----------------|-----------------|----------------|
|-----3-----3---2-|----2---2-2-2-2-|-----3-----3-----|----3-----------|
|-----0---0-0-0-2-|----2---2-2-2-2-|-----2---2-2-2-0-|----0-----0-----|
|-0---0---0-0-0-2-|----2---2-2-2-2-|-----0---0-0-0-0-|----0---0-x-0---|
|---------------0-|--------0---0---|-0---0---0---0-2-|----2---2-3-2-0-|
|-5---5---5---5---|----------------|-0---------------|----------------|
|
|-----2-----2-----|----0-------0---|-----0-----0-----|----0-----0-----|
|---3---3-----3---|--3---3---3---3-|---3---3-----3---|--3---3-----3---|
|-0-------0-----2-|--------2-------|-2-------2-----0-|--------0-----2-|
|-----------------|----------------|-----------------|----------------|
|-----------------|----------------|-----------------|----------------|


  D5            G/B                  D5            G/B
|-----------------|----------------|-----------------|----------------|
|-----3-----3-----|--3-------------|-----3-----3-----|--3-------------|
|-----2---2-2-2-0-|--0-------0-----|-----2---2-2-2-0-|--0-------0-----|
|-----0---0-0-0-0-|--0-----0-x-0---|-----0---0-0-0-0-|--0-----0-x-0---|
|-0---0---0---0-2-|--2-----2-3-2-0-|-0---0---0---0-2-|--2-----2-3-2-0-|
|-0---------------|----------------|-0---------------|----------------|
|
|-----0-----0-----|----0-----0-----|-----0-----0-----|----0-------0---|
|---3---3-----3---|--3---3-----3---|---3---3-----3---|--3---3---3---3-|
|---------0-----2-|--------2-----2-|-2-------2-----0-|--------0-------|
|-----------------|----------------|-----------------|----------------|
|-----------------|----------------|-----------------|----------------|
|-----------------|----------------|-----------------|----------------|


  D5
|------------|--------*|
|--3---------|-(3)----*|
|--2---------|-(2)----*|
|--0---------|-(0)----*|
|--0---------|-(0)----*|
|--0---------|-(0)----*|
|
|------------|--------*|
|--3---------|-(3)----*|
|--2---------|-(2)----*|
|--0---------|-(0)----*|
|------------|--------*|
|------------|--------*|
Comments