Switchfoot - Meant To Live Chords & Tabs

 

Meant To Live Chords & Tabs

Switchfoot Chords & Tabs

Version: 9 Type: Tab 0 ratings
1 star 2 stars 3 stars 4 stars 5 stars
comments

Meant To Live Tab

 ***this is how it really goes, ive got the cd now. i perfected my old tab just to be cool.***

dropped d tuning

^= bend and back
X= muffled strings (touching, not pressing frets while playing)
/ and \= slide

alright i know this is 100% perfect, i wouldnt waste my time if it wasnt.


intro:
E|-------------------------------------|
B|-------------------------------------|
G|-------------------------------------|
D|------4^-------4^--------4^---5555-7-|
A|-222------000-----------------5555-7-|
D|--------------------222-------5555-7-|


E|----------------------------------------------|
B|----------------------------------------------|
G|--444-------222-------------------------------|
D|--444--4^---222--4^---222--4^----0-2-0--5/7---|
A|--222-------000-------222--------0-2-0--5/7---|
D|----------------------222--------0-2-0--5/7---|

                                             |[ Tab from: http://www.guitartabs.cc/tabs/s/switchfoot/meant_to_live_tab_ver_9.html ]
                                                (chorus starts here)
                                             Oh, we were meant
E|--------------------------------------------------------|
B|--------------------------------------------------------|
G|--------------------------------------------------------|
D|--4-0--2-0--4-0--4/5-4--4-0--2-0--4-0--4/5/7---555-XXXX-|
A|--4-0--2-0--4-0--4/5-4--4-0--2-0--4-0--4/5/7---555-XXXX-|
D|--4-0--2-0--4-0--4/5-4--4-0--2-0--4-0--4/5/7---555-XXXX-|


 to live  for so much more, have we lost ourselves?
E|--------------------------------|
B|--------------------------------|
G|-222-XXXX----444 XXXX-----------|
D|-222-XXXX----444-XXXX--222--4^--|
A|-000-XXXX----222-XXXX--222------|
D|-----------------------222------|

  Somewhere we live inside, somewhere we live inside.
E|----------------------------------------|
B|----------------------------------------|
G|----------------------------------------|
D|--555-XXXX---222--4^-555-XXXX--222--4^--|
A|--555-XXXX---222-----555-XXXX--222------|
D|--555-XXXX---222-----555-XXXX--222------|


 We were meant to live  for so much more, have we lost ourselves?
E|------------------------------------------|
B|------------------------------------------|
G|-----------222-XXXX----444 XXXX-----------|
D|-555-XXXX--222-XXXX----444-XXXX--222--4^--|
A|-555-XXXX--000-XXXX----222-XXXX--222------|
D|-555-XXXX------------------------222------|

 
 Somewhere we live inside, somewhere we live inside.
E|----------------------------------------|
B|----------------------------------------|
G|----------------------------------------|
D|--555-XXXX---222--4^-555-XXXX--222--4^--|
A|--555-XXXX---222-----555-XXXX--222------|
D|--555-XXXX---222-----555-XXXX--222------|


E|----------------------------------------------|
B|----------------------------------------------|
G|--444-------222--------------------------4/7--|
D|--444--4^---222--4^---222--4^----0-2-0---4/7--|
A|--222-------000-------222--------0-2-0---2/5--|
D|----------------------222--------0-2-0--------|

                                       We want
E|-----------------------------------------|
B|-----------------------------------------| 
G|-11/12\11--9--7--6/7--6--2/4-------------|
D|--X/-X\-X--X--X--X/X--X--X/X---0000-4444-|
A|--9/10\-9--7--5--4/5--4--0/2---0000-4444-|
D|-------------------------------0000-4444-|


  more than the world's got to offer, we want more than the world's got to offer.
E|------------------------------------------------|
B|-333333333--------------333333333---------------|
G|-222222222---777777777--222222222---777777777---|
D|-000000000---777777777--000000000---777777777---|
A|-000000000---555555555--000000000---555555555---|
D|-000000000---555555555--000000000---555555555---|

We want more that the wars of our fathers and everything inside screams for
second life.  eeyyeeaahheeyyeeaahheeaahhhhhh! 
E|-----------------------------------------------|
B|-333333333-------------------------------------|
G|-222222222---444444444---55555555--------------|
D|-000000000---444444444---55555555--555555555---|
A|-000000000---222222222---33333333--555555555---|
D|-000000000---222222222-------------555555555---|

  We were meant to live for so much more, have we lost ourselves?
E|---------------------------------------------|
B|---------------------------------------------|
G|-------------7-------------1111111111111111--|
D|--0000000000-X-0000000000--X-X-X-X-X-X-X-X---|
A|--0000000000-5-0000000000--9-9-9-9-9-9-9-9---|
D|--0000000000---0000000000--------------------|

 We were meant to live for so much more, have we lost ourselves?
E|---------------------------------------------|
B|---------------------------------------------|
G|-------------7-------------1111111111111111--|
D|--0000000000-X-0000000000--X-X-X-X-X-X-X-X---|
A|--0000000000-5-0000000000--9-9-9-9-9-9-9-9---|
D|--0000000000---0000000000--------------------|

  We were meant to live, we were meant to live ahhohhh!
E|---------------------------------------------|
B|---------------------------------------------|
G|-------------7-------------1111111111111111--|
D|--0000000000-X-0000000000--X-X-X-X-X-X-X-X---|
A|--0000000000-5-0000000000--9-9-9-9-9-9-9-9---|
D|--0000000000---0000000000--------------------|

E|------------------------------------|
B|------------------------------------|
G|--444-------222---------------------|
D|--444--4^---222--4^---2-------------|
A|--222-------000-------2-------------|
D|----------------------2-------------|

alright thats all. i hope its not 40 pages long. its 100% correct, i have damn good 20/20 EARS.

E-mail Q's or comments to: incubus_fan_1987@yahoo.com

thanks so much for visiting my tab! payce out!
Comments