Switchfoot - Meant To Live Chords & Tabs

 

Meant To Live Chords & Tabs

Switchfoot Chords & Tabs

Version: 7 Type: Tab 0 ratings
1 star 2 stars 3 stars 4 stars 5 stars
comments

Meant To Live Tab

   
    ***This song is awesome, but it's easy to screw up. You'll feel great when
you play it... except your fingers, youch!       
         Whatever. Here it is!***

Dropped D tuning:
 
X=muffled strings
^=bend (big)
\ or /= slides

intro:
E|---------------------------------------------------|
B|---------------------------------------------------|
G|-4-4-4-----2-2-2---------------------------4\7-----|
D|-4-4-4--4^-2-2-2--4^--2-2-2--4^---0--2-0---4\7-----| 
A|-2-2-2-----0-0-0------2-2-2-------0--2-0---2\5-----|
D|----------------------2-2-2-------0--2-0-----------|

   
E|--------------------------------------------|
B|--------------------------------------------|
G|--11\12/11--9--7--6--7---4------------------|
D|---X\-X/-X--X--X--X--X---X-----------4\5\7--|
A|---9\10/-9--7--5--4--5---2------------------|
D|--------------------------------------------|
  
vs1: Fumbling his confidence and wondering why the world has passed him by...
 Hoping that he's bent for more than arguments and failed attempts to fly...
vs2: Dreaming about providence and weither mise or men have second trys...
Maybe we've been living with our eyes half open, maybe we're bent and broken.
E|----------------------------------------------------------|
B|----------------------------------------------------------|
G|----------------------------------------------------------|
D|-5-----5-5--2-0--0-0--2-0--4-0---2-0--0-0--2-0--4\5\7-----| 2x
A|-5-----5-5--2-0--0-0--2-0--4-0---2-0--0-0--2-0------------|
D|-5-----5-5--2-0--0-0--2-0--4-0---2-0--0-0--2-0------------|

chorus1:
 We were meant to live for so much more, have we lost ourselves?
E|-------------------------------------------------------------|
B|-------------------------------------------------------------|
G|-------------------------------------------------------------|
D|-5-5-5--X-X-X-X---7-7-7--X-X-X-X--9-9-9--X-X-X-X--7-7-7--4^--| 
A|-5-5-5--X-X-X-X---7-7-7--X-X-X-X--9-9-9--X-X-X-X--7-7-7------|
D|-5-5-5--X-X-X-X---7-7-7--X-X-X-X--9-9-9--X-X-X-X--7-7-7------|

  Somewhere we live inside, Somewhere we live inside.               2x
E|-----------------------------------------------------|         
B|-----------------------------------------------------|
G|-----------------------------------------------------|
D|-5-5-5--X-X-X-X--7-7-7--4^--9-9-9--X-X-X-X--7-7--4^--|
A|-5-5-5--X-X-X-X--7-7-7------9-9-9--X-X-X-X--7-7------|
D|-5-5-5--X-X-X-X--7-7-7------9-9-9--X-X-X-X--7-7------|
[ Tab from: http://www.guitartabs.cc/tabs/s/switchfoot/meant_to_live_tab_ver_7.html ]
E|----------------------------------------------|
B|----------------------------------------------|
G|----------------------------------------------|
D|--2-0--0-0--2-0--4-0---2-0--0-0--2-0---4\5\7--| 
A|--2-0--0-0--2-0--4-0---2-0--0-0--2-0----------|
D|--2-0--0-0--2-0--4-0---2-0--0-0--2-0----------|

***Go to vs2***

 We were meant to live for so much more, have we lost ourselves?
E|-------------------------------------------------------------|
B|-------------------------------------------------------------|
G|-------------------------------------------------------------|
D|-5-5-5--X-X-X-X---7-7-7--X-X-X-X--9-9-9--X-X-X-X--7-7-7--4^--| 
A|-5-5-5--X-X-X-X---7-7-7--X-X-X-X--9-9-9--X-X-X-X--7-7-7------|
D|-5-5-5--X-X-X-X---7-7-7--X-X-X-X--9-9-9--X-X-X-X--7-7-7------|

  Somewhere we live inside, Somewhere we live inside.               2x
E|-----------------------------------------------------|         
B|-----------------------------------------------------|
G|-----------------------------------------------------|
D|-5-5-5--X-X-X-X--7-7-7--4^--9-9-9--X-X-X-X--7-7--4^--|
A|-5-5-5--X-X-X-X--7-7-7------9-9-9--X-X-X-X--7-7------|
D|-5-5-5--X-X-X-X--7-7-7------9-9-9--X-X-X-X--7-7------|

E|---------------------------------------------------|
B|---------------------------------------------------|
G|-4-4-4-----2-2-2---------------------------4\7-----|
D|-4-4-4--4^-2-2-2--4^--2-2-2--4^---0--2-0---4\7-----| 
A|-2-2-2-----0-0-0------2-2-2-------0--2-0---2\5-----|
D|----------------------2-2-2-------0--2-0-----------|

E|---------------------------------------------------|
B|---------------------------------------------------|
G|-4-4-4-----2-2-2-----------------------------------|
D|-4-4-4--4^-2-2-2--4^--2-2-2--4^---0--2-0--0-0------| 
A|-2-2-2-----0-0-0------2-2-2-------0--2-0--0-0------|
D|----------------------2-2-2-------0--2-0--0-0------|

bridge:
 We want more than this world's got to offer.
 We want more than this world's got to offer.
 We want more that the wars of our fathers and everything inside 
 screams for second life... yeeeaaaeeaaeeaaeeaah!

"I dont know how this goes, but it starts like this D chord, than the bass goes
D, G, D, G, D, G, C, G. I Don't have the cd.
E|--------------------------------------------------|
B|--3-----------------------------------------------|
G|--2-----------------------------------------------|
D|--0-----------------------------------------------|
A|--0-----------------------------------------------|
D|--0-----------------------------------------------|

ORDER:

Intro
Verse1
Chorus1
Verse2
Chorus2
Intro
Bridge 
Chorusx2

thats it. i hope you learn from me.
any comments email me @: incubus_fan_1987@yahoo.com
Comments