Switchfoot - Meant To Live Chords & Tabs

 

Meant To Live Chords & Tabs

Switchfoot Chords & Tabs

Version: 11 Type: Tab 0 ratings
1 star 2 stars 3 stars 4 stars 5 stars
comments

Meant To Live Tab

   
-----------------------------------------------------------------------------
			 Meant to Live- Switchfoot
-----------------------------------------------------------------------------
Tabbed by:CDawg
Email:rimbreaker4444@yahoo.com
             I would really like some input form people.


Tuning:Drop D


                         Intro x3
e|---------------------------------------------------------------------------|
B|---------------------------------------------------------------------------|
G|-------0--------0--------0-------------------------------------------------|
D|--999------777------222--------5555-7--------------------------------------|
A|--999--9b--777--9b--222--9b----5555-7--------------------------------------|
D|--999------777------222--------5555-7--------------------------------------|

                 2nd Guitar during last x of intro
e|---------------------------------------------------------------------------|
B|---------------------------------------------------------------------------|
G|---------------------------------------------------------------------------|
D|---------------------------------------------------------------------------|
A|--9b---7---5---9---5---4---0-----------------------------------------------|
D|-------------------------------7b^-----------------------------------------|


                             Verse
e|---------------------------------------------------------------------------|
B|---------------------------------------------------------------------------|
G|---------------------------------------------------------------------------|
D|---5~~~----4--0--2--0--4--0--4--5--4---4--0--2--0--4--0--4--5--7-----------|
A|---5~~~----4--0--2--0--4--0--4--5--4---4--0--2--0--4--0--4--5--7-----------|
D|---5~~~----4--0--2--0--4--0--4--5--4---4--0--2--0--4--0--4--5--7-----------|
[ Tab from: http://www.guitartabs.cc/tabs/s/switchfoot/meant_to_live_tab_ver_11.html ]
                 Chorus-Repeat once the last time go into the verse
e|---------------------------------------------------------------------------|
B|---------------------------------------------------------------------------|
G|---------------------------------0---------------0-------------------------|
D|--555-xxxx-777-xxxx-999-xxxx-222----555-xxxx-222----555-xxxx-22222---------|
A|--555-xxxx-777-xxxx-999-xxxx-222-9b-555-xxxx-222-9b-555-xxxx-22222---------|
D|--555-xxxx-777-xxxx-999-xxxx-222----555-xxxx-222----555-xxxx-22222---------|

                              Bridge
 Strumming pattern-down,down,down,up,up,up,down,up,up,down. listen to song for rythym.

e/---x--x--0--x---------------------------------------------------------------|
B|---3--3--3--1---------------------------------------------------------------|
G|---2--0--0--0---------------------------------------------------------------|
D|---0--0--2--2---------------------------------------------------------------|
A|---0--x--2--3---------------------------------------------------------------|
D|---0--5--2--x---------------------------------------------------------------|

                               Outro
one guitar plays this part while the other one strums first note of bridge
e|---------------------------------------------------------------------------|
B|---------------------------------------------------------------------------|
G|--7-7-7-7-7-7-7-7-7-7-7-7/--11-11-11-11-11-11-11-11-11-11-11-11------------|
D|---------------------------------------------------------------------------|
A|--5-5-5-5-5-5-5-5-5-5-5-5/--9--9--9--9--9--9--9--9--9--9--9--9-------------|
D|---------------------------------------------------------------------------|


                     Closing
e|---------------------------------------------------------------------------|
B|---------------------------------------------------------------------------|
G|-------0-------0-----------------------------------------------------------|
D|---999-----777-----2~~~~---------------------------------------------------|
A|---999-9b--777-9b--2~~~~---------------------------------------------------|
D|---999-----777-----2~~~~---------------------------------------------------|


  ^  full bend
  b  bend
| /  slide up
| \  slide down
| ~  hold and let ring
| x  Mute note
Comments