Switchfoot - Meant To Live Chords & Tabs

 

Meant To Live Chords & Tabs

Switchfoot Chords & Tabs

Version: 10 Type: Tab 0 ratings
1 star 2 stars 3 stars 4 stars 5 stars
comments

Meant To Live Tab

   
Song: Meant to Live
Artist: Switchfoot
Album: The Beautiful Letdown

guitars 1 & 2, Drop D tuing: D-A-D-G-B-E (low to high)
guitar 3 (acoustic), DADGAD tuning: D-A-D-G-A-D (low to high)


Guitar 1
Drop D tuning: D-A-D-G-B-E (low to high)

E|--------------------------------------------------------|
B|--------------------------------------------------------|
G|----------0----------------0----------------0-----------|
D|----------4b--4r-----------4b--4r-----------4b--4r------|
A|-2--2--2----------0--0--0----------2--2--2--------------|
D|-----------------------------------2--2--2--------------|

E|--------------------------------------------------------|
B|--------------------------------------------------------|
G|--------------------------------------------------------|
D|-5--5--5--5---7--7--------------------------------------|
A|-5--5--5--5---7--7--------------------------------------|
D|-5--5--5--5---7--7--------------------------------------|

E|--------------------------------------------------------|
B|--------------------------------------------------------|
G|----------0----------------0----------------0-----------|
D|-4--4--4--4b--4r--2--2--2--4b--4r--2--2--2--4b--4r------|
A|-2--2--2----------0--0--0----------2--2--2--------------|
D|-----------------------------------2--2--2--------------|

E|--------------------------------------------------------|
B|--------------------------------------------------------|
G|--------------------------------------------------------|
D|-0--2--0--0--0--2--7--7---------------------------------|
A|-0--2--0--0--0--2--7--7---------------------------------|
D|-0--2--0--0--0--2--7--7---------------------------------|

E|--------------------------------------------------------|
B|--------------------------------------------------------|
G|----------0----------------0----------------0-----------|
D|-4--4--4--4b--4r--2--2--2--4b--4r--2--2--2--4b--4r------|
A|-2--2--2----------0--0--0----------2--2--2--------------|
D|-----------------------------------2--2--2--------------|

E|--------------------------------------------------------|
B|--------------------------------------------------------|
G|--------------------------------------------------------|
D|-4--4--4--4--4--4--4-/5--5------------------------------|
A|-4--4--4--4--4--4--4-/5--5------------------------------|
D|-4--4--4--4--4--4--4-/5--5------------------------------|


Guitar 2 
Drop D tuning: D-A-D-G-B-E (low to high)

E|--------------------------------------------------------|
B|--------------------------------------------------------|
G|--------------------------------------------------------|
D|--4b---4----------4-------------------------------------|
A|----------7---5-------5---4-----------------------------|
D|------------------------------7---7b--------------------|


Guitar 1
Drop D tuning: D-A-D-G-B-E (low to high)

E|--------------------------------------------------------|
B|--------------------------------------------------------|
G|--------------------------------------------------------|
D|-4-------2-------4-------4-/5--4------------------------|
A|-x--0----x--0----x--0----x-----x------------------------|
D|-4--0----2--0----4--0----4-/5--4------------------------|

E|--------------------------------------------------------|
B|--------------------------------------------------------|
G|--------------------------------------------------------|
D|-4-------2-------4-------4-/5-/7------------------------|
A|-x--0----x--0----x--0----x------------------------------|
D|-4--0----2--0----4--0----4-/5-/7------------------------|

              harm---|               harm---| 
E|--------------------------------------------------------|
B|--------------------------------------------------------|
G|--------------------------------------------------------|
D|-5--5--5-------------0--7--7--7----------5----9--9--9---|
A|-5--5--5-------------0--7--7--7----5--5-------9--9--9---|
D|-5--5--5----5--5--5--0--7--7--7---------------9--9--9---|

   harm--| 
E|--------------------------------------------------------|
B|--------------------------------------------------------|
G|--------------------------0-----------------------------|
D|-9--9--9----0--2--2--2----4b----------------------------|
A|------------0--2--2--2----------------------------------|
D|------------0--2--2--2----------------------------------|
[ Tab from: http://www.guitartabs.cc/tabs/s/switchfoot/meant_to_live_tab_ver_10.html ]
              harm---|                               harm---|
E|-------------------------------------------------------------|
B|-------------------------------------------------------------|
G|-----------------------------------0-------------------------|
D|-5--5--5-------------0--2--2--2----4b---5--5--5--------------|
A|-5--5--5-------------0--2--2--2---------5--5--5--------------|
D|-5--5--5----5--5--5--0--2--2--2---------5--5--5----5--5--5---|


E|-----------------------------------------------|
B|-----------------------------------------------|
G|-----------------------------------------------|
D|-0--2--2----2--0--0----------------------------|
A|-0--2--2----2--0--0----------------------------|
D|-0--2--2----2--0--0----------------------------|

E|--------------------------------------------------------|
B|--------------------------------------------------------|
G|----------0----------------0----------------0-----------|
D|-4--4--4--4b--4r--2--2--2--4b--4r--2--2--2--4b--4r------|
A|-2--2--2----------0--0--0----------2--2--2--------------|
D|-----------------------------------2--2--2--------------|

E|--------------------------------------------------------|
B|-------------------7------------------------------------|
G|-------------------7------------------------------------|
D|-0--2--0--0--0--2--5------------------------------------|
A|-0--2--0--0--0--2---------------------------------------|
D|-0--2--0--0--0--2---------------------------------------|

E|--------------------------------------------------------|
B|--------------------------------------------------------|
G|----------0----------------0----------------0-----------|
D|-4--4--4--4b--4r--2--2--2--4b--4r--2--2--2--4b--4r------|
A|-2--2--2----------0--0--0----------2--2--2--------------|
D|-----------------------------------2--2--2--------------|

E|--------------------------------------------------------|
B|--------------------------------------------------------|
G|--------------------------------------------------------|
D|-4--4--4--4--4--4--4--4---------------------------------|
A|-4--4--4--4--4--4--4--4---------------------------------|
D|-4--4--4--4--4--4--4--4---------------------------------|


Guitar 3 (acoustic)
DADGAD tuning: D-A-D-G-A-D (low to high)

E|-0---0--0--0--0---0--0--0---0---0--0--0--0--------------|
B|-0---0--0--0--0---0--0--0---0---0--0--0--0--------------|
G|-0---0--0--0--0---0--0--0---0---0--0--0--0--------------|
D|-0---0--0--0--0---0--0--0---0---0--0--0--0--------------|
A|-0---0--0--0--0---0--0--0---0---0--0--0--0--------------|
D|-0---0--0--0--0---0--0--0---0---0--0--0--0--------------|

E|-0--0--0--0---0--0--0---0---0--0--0--0-----|
B|-0--0--0--0---0--0--0---0---0--0--0--0-----|
G|-0--0--0--0---0--0--0---0---0--0--0--0-----|
D|-5--5--5--5---5--5--5---5---5--5--5--5-----|
A|-5--5--5--5---5--5--5---5---5--5--5--5-----|
D|-5--5--5--5---5--5--5---5---5--5--5--5-----|

E|--------------------------------------------------------|
B|--------------------------------------------------------|
G|--------------------------------------------------------|
D|-10-10-10-10-10-10-10-10-10-10-10-10-10-10-10-10--------|
A|-10-10-10-10-10-10-10-10-10-10-10-10-10-10-10-10--------|
D|-10-10-10-10-10-10-10-10-10-10-10-10-10-10-10-10--------|

E|--------------------------------------------------------|
B|--------------------------------------------------------|
G|--------------------------------------------------------|
D|-5--5--5--5--5--5--5--5--5--5--5--5--5--5--5--5---------|
A|-5--5--5--5--5--5--5--5--5--5--5--5--5--5--5--5---------|
D|-5--5--5--5--5--5--5--5--5--5--5--5--5--5--5--5---------|

outro
guitar 1

E|--------------------------------------------------------|
B|------------------3b-3--3--3--3--3--3r------------------|
G|------------------5b-5--5--5--5--5--5r------------------|
D|-0--0---0--0---0----------------------------------------|
A|-0--0---0--0---0----------------------------------------|
D|-0--0---0--0---0----------------------------------------|

E|--------------------------------------------------------|
B|------------------7b-7--7--7--7--7--7r------------------|
G|------------------9b-9--9--9--9--9--9r------------------|
D|-0--0---0--0---0----------------------------------------|
A|-0--0---0--0---0----------------------------------------|
D|-0--0---0--0---0----------------------------------------|

E|--------------------------------------------------------|
B|--------------------------------------------------------|
G|----------0----------------0----------------------------|
D|-4--4--4--4b--4r--2--2--2--4b--4r--2--------------------|
A|-2--2--2----------0--0--0----------2--------------------|
D|-----------------------------------2--------------------|

B = bend
r = release
/ = slide
harm = harmonic
Comments