Switchfoot - Meant To Live Chords & Tabs

 

Meant To Live Chords & Tabs

Switchfoot Chords & Tabs

Version: 1 Type: Tab 3 ratings
1 star 2 stars 3 stars 4 stars 5 stars
comments

Meant To Live Tab

   
Band: Switchfoot
Song: Meant To Live
By:Rudy
Forum Name:XrudyX

Website: www.geocities.com/creed989

Awesome song! I modified the version before. Added some parts it was missing.
Have fun!

Tuning: Drop D (D A D G B E)

p=pull off
b=bend to and return
h=hammer
/=slide
[]=harmonix

Intro:
E|--------------------------------------------------|
B|--------------------------------------------------|
G|-4-4-4-------2-2-2--------------------------------|
D|-4-4-4-4b5---2-2-2-4b5---2-2-2-4b5---5-5-5-5-7-7--|
A|-2-2-2-------0-0-0-------2-2-2-------5-5-5-5-7-7--|
D|-------------------------2-2-2-------5-5-5-5-7-7--|

Solo:
E|--------------------------------|
B|--------------------------------|
G|--------------------------------|
D|--4b5--2--0--4--0---------------|
A|-------------------4------------|
D|----------------------7b--------|
                  full slow bend
Verse(while singing)
E|-----|
B|-----|
G|-----|
D|--5--|~ring~~
A|--5--|
D|--5--|
[ Tab from: http://www.guitartabs.cc/tabs/s/switchfoot/meant_to_live_tab.html ]
Verse (when not singing)
E|--------------------------------------------------------------------|
B|--------------------------------------------------------------------|
G|--------------------------------------------------------------------|
D|--------------------------------------------------------------------|
A|-2p-0-0-0-4p-0-0-0-2p-0-0-0-------2p-0-0-0-4p-0-0-0-2p-0-0-0--------|
D|-2p-0-0-0-4p-0-0-0-2p-0-0-0-4h5p4-2p-0-0-0-4p-0-0-0-2p-0-0-0-4h5/7--|

Chorus
E|--------------------------------------------------------------------|
B|--------------------------------------------------------------------|
G|--------------------------------------------------------------------|
D|-5-5-5-----------------7-7-7-----------------9-9-9-[9]-[9]-[9]-[9]--|
A|-5-5-5-----------------7-7-7-[7]-[7]-[7]-[7]-9-9-9------------------|
D|-5-5-5-[5]-[5]-[5]-[5]-7-7-7-----------------9-9-9------------------|


E|------------------------------|--------------------------------|
B|------------------------------|--------------------------------|
G|------------------------------|--------------------------------|
D|-2-2-2-4b5--5-5-5-------------|-2-2-2-4b5----5-5-5-------------|
A|-2-2-2------5-5-5-------------|-2-2-2--------5-5-5-------------|
D|-2-2-2------5-5-5-[5]-[5]-[5]-|-2-2-2--------5-5-5-[5]-[5]-[5]-|

Acoustic:repeat X times| *distortion*
E|---------------------|--------------|
B|--3--3--3---8--8--8--|--------------|
G|--2--2--2---7--7--7--|---5-5--------|
D|--0--0--0---5--5--5--|---5-5--5-5-5-|
A|--0--0--0---5--5--5--|---3-3--5-5-5-|
D|--0--0--0---5--5--5--|--------5-5-5-|

Weird Feedback part:
E|-------------------------|
B|-------------------------|
G|---7~~~--------11~~~~----|
D|-------------------------|
A|-------------------------|
D|-------------------------|

End on:
E|-----|
B|-----|
G|-----|
D|--2--|
A|--2--|
D|--2--|
Comments