Switchfoot - Meant To Live Chords & Tabs

 

Meant To Live Chords & Tabs

Switchfoot Chords & Tabs

Version: 1 Type: Bass Tab 0 ratings
1 star 2 stars 3 stars 4 stars 5 stars
comments

Meant To Live Bass Tab

well this is the my band and I play it and it is almost exact so check it out,
switchfoot rocks!
tune down to gdad.

Intro: at first it is guitar solo and then bass comes in.
g|---------------------------------------------------------------------------
d|---------------------------------------------------------------------------
a|---------------------------------------------------------------------------
d|-999--777--222--555-777-999--777--222--555-777-----------------------------

Verse: Fumbling in his confidence....
g|---------------------------------------------------------------------------
d|---------------------------------------------------------------------------
a|---------------------------------------------------------------------------
d|---5-----------------------------------------------------------------------

Verse 2:
g|---------------------------------------------------------------------------
d|---------------------------------------------------------------------------
a|---------------------------------------------------------------------------
d|-40-20-40-454-40-20-40-457-------------------------------------------------
[ Tab from: http://www.guitartabs.cc/tabs/s/switchfoot/meant_to_live_btab.html ]
Chorus: We were meant to live.........
g|---------------------------------------------------------------------------
d|---------------------------------------------------------------------------
a|---------------------------------------------------------------------------
d|-555xxx777xxx999xxx222-5b-222xxx222-5b-222xxx222-5b------------------------

Verse 3:(comes in right after chorus)
g|---------------------------------------------------------------------------
d|---------------------------------------------------------------------------
a|---------------------------------------------------------------------------
d|-40-20-40-454-40-20-40-457-5-----------------------------------------------

interlude: we want more than this worlds got to offer..........
g|---------------------------------------------------------------------------
d|---------------------------------------------------------------------------
a|---------------------------------------------------------------------------
d|-9----------7----------5----------2------xxxxxxxxx--xxxxxxxxx--------------

Chorus:
g|---------------------------------------------------------------------------
d|---------------------------------------------------------------------------
a|---------------------------------------------------------------------------
d|-9999-7777-2222-9999-7777-2222-999--777--2---------------------------------

well thats pretty much it enjoy.

b=bend string
Comments