Switchfoot - Love Is The Movement Chords & Tabs

 

Love Is The Movement Chords & Tabs

Switchfoot Chords & Tabs

Version: 1 Type: Bass Tab 0 ratings
1 star 2 stars 3 stars 4 stars 5 stars
comments

Love Is The Movement Bass Tab

Switchfoot~Love is the Movement
From the album Learning to breathe (which is an awesome cd)
Tabbed by Switchchick0610
Switchfoot ROCKS!!!!

I tried to get every single note. This is my first tab. Enjoy


Intro          x2              x1                x1
G|---------12-11-|---------14-11-|---------12-11------------------||
D|------12-------|------12-------|------12------------------------||
A|-0-10----------|-0-10----------|-0-10---------------------------||
E|---------------|---------------|--------------------------------||

Verse 1
G|----9/10-9/10------9/10-9/10------9/10-9/10------9/10-9/10------||
D|----------------------------------------------------------------||
A|-00-----------000-----------0005-----------000------------0005--||
E|-----------------6----------------------------6-----------------||

Bridge
G|--9-10~-----9/10~-----9/10~----9/10~-----9/10~------------------||
D|----------0---------0--------0----------------------------------||
A|-------------------0-------------------0------------------------||
E|----------------------------------------------------------------||
[ Tab from: http://www.guitartabs.cc/tabs/s/switchfoot/love_is_the_movement_btab.html ]
Chorus
G|----9-10-9-10------------3-2-0----------------------------------------||
D|-----------------------3-------0--------------------------------------||
A|-00-----------000-1111--------------5-0--3333-4444--------------------|| x2
E|---------------------------------3-3----------------------------------||


*Verse 1


Verse 2
G|-------------------------------------------------------------------||
D|-------------------------------------------------------------------||
A|-5535----------------------4---------------------------------------|| x3
E|------33-5-0-1-111-11--3-5---5-666-666-666-666-888-888-5686--------||

Bridge 2
G|---9/10~----9/10~----||
D|-0-------------------||
A|----------0----------||
E|---------------------||


Chorus   x2

Bridge 3
G|----------------------------------------------------------------||
D|-----------------123--------------------------------------------|| x4
A|-1111-1111-3333-3-----------------------------------------------||(end 4th time early)
E|----------------------------------------------------------------||

Intro 
Verse 1
Bridge 2 x2
Chorus   x7 (end 7th time early)

There I hope you enjoy.. If theres any corrections please tell me.
Comments