Switchfoot - Life And Love And Why Chords & Tabs

 

Life And Love And Why Chords & Tabs

Switchfoot Chords & Tabs

Version: 1 Type: Bass Tab 0 ratings
1 star 2 stars 3 stars 4 stars 5 stars
comments

Life And Love And Why Bass Tab

Life and Love and Why~ Switchfoot
Legend of Chin
Awesome song!!
Tabbed by Switchchick0610
Standard tuning

Intro
G|--------------|-------------------------------|
D|----5---5--5--|----5-4---5-4-7---5-7-9---9/8--|
A|--7------7----|--7----------------------------|
E|--------------|-------------------------------|

Verse 1
G|--------------------------------------------------------------|
D|--------------7--5-7-9--9/8---------4-----4--7---5-7-9---9/8--|
A|--5-4-----4-5--------------------5-4-----5--------------------|
E|-------7------------------------------------------------------|

G|------------------------------|
D|--999999-999-8h98h98h98h9~----|
A|---------------------------7--|
E|------------------------------|

Riff
G|----------------------------------|
D|----------------------------------|
A|--9>-7-5---9>-7-4---10>-9-7--9-4--|
E|----------------------------------|

Fill in
G|------------4--|
D|------4---4----|
A|--5-7---4------|
E|---------------|

Verse 2                      x2
G|------------------------------|-----------|------------------------------|
D|------------------------------|--9>-9999--|------------------------------|
A|--2>-22--0>-00----------------|-----------|--18h19--19h17--19/17--17/14--|
E|----------------3>-33--2>-22--|-----------|------------------------------|

*Riff* then...
[ Tab from: http://www.guitartabs.cc/tabs/s/switchfoot/life_and_love_and_why_btab.html ]
G|-------|
D|-------|
A|--5-4--|
E|-------|

Chorus                                        x2
G|-------------------------------------------------|
D|-------------------------------------------------|
A|--5-553-553--------------------------------------|
E|--------------5-553-553---7-775-775---3-333-320--|

Post Chorus               x2
G|---------------------------|
D|---------------------------|
A|--2-22222-2222-------------|
E|----------------3-3-2-1-0--|

Bridge
G|-------------------------------------------------------|
D|--0-000---------0-000--2-222--0-000---------0-000--2~--|
A|---------3-333-----------------------3-333-------------|
E|-------------------------------------------------------|
                                                          x2
G|-----------------------------|------------------------------|
D|-----------------------------|------------------------------|
A|--2-2*---1-1*---0-0*---------|------------------------------|
E|-----------------------4-4*--|--3-333--3-333--5-555--5-555--|


*Chorus*  x6 (6th time ends a little early)

then....                          x3
G|-----------------|-------|---------|------------|
D|------0-------0--|----5--|--5---5--|--5-4-------|
A|----2-------2----|--7----|---7-----|--------2~--|
E|--3-------3------|-------|---------|------------|


Thats it... Please tell me about any corrections....
Comments