Switchfoot - Let That Be Enough Chords & Tabs

 

Let That Be Enough Chords & Tabs

Switchfoot Chords & Tabs

Version: 3 Type: Tab 0 ratings
1 star 2 stars 3 stars 4 stars 5 stars
comments

Let That Be Enough Tab

lyrics included. enjoy!

intro: acoustic (repeat)     |-    -1 |-     -2-->
e-------------------------------------|---------->
B-------------------0---0---0---------|---------->
G---1---1---1-2--------------2-1------|--2~~----->
D-----2---------2---------------2-----|--2h4p2--->
A---------0-------4---2---0------2----|---------->
E-0-----------------------------------|---------->

verse 1: intro repeated 4x

wish I had what I needed to be on my own cuz I feel so defeated and I'm feeling alone 
it all seems so hopeless and I have no plans I'm a plane in the sunset with nowhere to land

e-------------------------------->
B-----0~~-----0~~----0~~--0~~---->
G---3~~-------------------------->
D--4----------------2----2-4-2---> repeat
A-4-------0~~------2----0-------->
E-----------------0-------------->
and all I see it could never make me happy and all my sand castles spend their time collapsing
[ Tab from: http://www.guitartabs.cc/tabs/s/switchfoot/let_that_be_enough_tab_ver_3.html ]
chorus:
e--------------------->
B----0---0----0----0-->
G--------------------->
D---2---2----2----2---> repeat 4x
A--2---2--0-2--0-2---->
E-0---0--------------->
let me know that you hear me let me know your touch let me know that you love me and let that be enough

verse 2: intro repeated 2x

its my birthday tomorrow no one here to know I was born this Thursday 22 years ago

e-------------------------------->
B-----0~~-----0~~----0~~--0~~---->
G---3~~-------------------------->
D--4----------------2----2-4-2---> repeat
A-4-------0~~------2----0-------->
E-----------------0-------------->
and I feel stuck watching history repeating yeah, who am I, just a kid who knows he's needy

repeat chorus twice

outro:
e--------------------------------------------------------------------->
B-------------------0---0------------0-------------0---0---------0~~-->
G---1---1---1-2-------------2~~-------1---2-2-1------------------1~~-->
D-----2---------2-----------2h4p2---2----2-----2-----------2-1---2~~-->
A---------0-------4---2---0--------2----0--------4---2---0-----2-2~~-->
E-0-------------------------------0------------------------------0~~-->
Comments