Switchfoot - Let That Be Enough Chords & Tabs

 

Let That Be Enough Chords & Tabs

Switchfoot Chords & Tabs

Version: 2 Type: Tab 0 ratings
1 star 2 stars 3 stars 4 stars 5 stars
comments

Let That Be Enough Tab

-----------------------------------------------------------------------------
			   Switchfoot- Let That Be Enough
-----------------------------------------------------------------------------
Tabbed by: Chris
Email: Soccrepro9@aol.com

Tuning: Standard

Intro:                                     *second ending 
e|-----------------------------------------|---------------------|
B|-----------------------------------------|---------------------|
G|---1---1----1-2h1-------4--4--4----------|---4--4---4-4/6-4/6--|
D|-----2-----2-----2h0---2--2--2---2h1-----|--2--2--2-2-2/4-2/4--|
A|--2-2-2---0--0--------4--2--0-------2h0--|-4--2--0-------------|
E|-0---------------------------------------|---------------------|
*You can either pick it or finger pick it. The guy in the song most likely picks
it, but do what you want.
[ Tab from: http://www.guitartabs.cc/tabs/s/switchfoot/let_that_be_enough_tab_ver_2.html ]
Verse:
e|-----------------------------------------|
B|-----------------------------------------|
G|---1--------1-2h1-------4--4--4---4------|
D|-----2-1---2-----2h0---2--2--2-2-2-------|
A|--2-2-2---0--0--------4--2--0---0--------|
E|-0---------------------------------------|
You get the idea...

Prechorus:
e|-----------------------------------------------------|
B|--------------------------------3--------------------|
G|-----3--------6--------1------3--3-3-----------------|
D|---4--4-4---7--7-7---2--2-2--3-3--3------------------|
A|--4-4--4---7-7--7---2-2--2--0------------------------|
E|-2--------5--------0---------------------------------|

Chorus:
e|----------------------------------------------------------|
B|----------------------------------------------------------|
G|---4---4---4---4---4---4---4---4---4---4---4-----4---4----|
D|--4-4-4-4-2-2-2-2-4-4-4-4-2-2-2-2-4-4-4-4-2-2---2-2-4-4---|
A|-2---2---0---0---2---2---0---0---2---2---0---0-0---2------|
E|----------------------------------------------------------|

Listen to the rest of the song to figure out the structure, but this is
everything you need. Questions or comments e-mail me.
Comments