Switchfoot - Learning To Breathe Chords & Tabs

 

Learning To Breathe Chords & Tabs

Switchfoot Chords & Tabs

Version: 2 Type: Tab 0 ratings
1 star 2 stars 3 stars 4 stars 5 stars
comments

Learning To Breathe Tab

   
Switchfoot  Learning to Breathe

INTRO)
   Riff 1a (Gtr 1)          x3      Fill 1
e||---------------------------||  |---------------------------------|
B||---3-3-3-3-3-3-3-3-3---3---||  |-3-3-3-3-3-3-3-3-3-3-3-3-3-3-3-3-|
G||o--2-4-2-4-4-2-4-2-4br-2--o||  |-2-4-2-2-0-0-0-0-4-4-4-4-0-0-0-0-|
D||o--0-0-0-0-0-0-0-0-0---0--o||  |-0-0-0-0-0-0-0-0-0-0-0-0-0-0-0-0-|
A||---------------------------||  |---------------------------------|
E||---------------------------||  |---------------------------------|
|
| Riff 1b (Gtr 2 intro only)
e||---------------------------||
B||---3-3-3-3-3-3-3-3-3---3---||
G||o--2-4-2-4-4-2-4-2-4---2--o||
D||o--0-0-0-0-0-0-0-0-0---0--o||
A||---------------------------||
E||---------------------------||

Repeat Riff 1 x3
then:
Fill 2
e|---------------------------------|---------------------------------|
B|-3-3-3-3-3-3-3-3-3-3-3-3-3-3-3-3-|-3-3-3-3-3-3-3-3-3-3-3-3-3-3-3-3-|
G|-2-2-2-2-2-2-2-2-0-0-0-0-0-0-0-0-|-0-0-0-0-0-0-0-0-0-0-0-0-0-0-0-0-|
D|-0-0-0-0-0-0-0-0-0-0-0-0-0-0-0-0-|-4-4-4-4-4-4-4-4-4-4-4-4-4-4-4-4-|
A|---------------------------------|---------------------------------|
E|---------------------------------|---------------------------------|

VERSE 1  X2
| Riff 1b
e||-------------------------xx||
B||--3-3-3-3-3-3-3-3-3---3--33||
G||--2-4-2-4-4-2-4-2-4---2--00||
D||--0-0-0-0-0-0-0-0-0---0--22||
A||-------------------------33||
E||-------------------------xx||

Fill 3 (x2)
e|---------------------------------|
B|-3-3-3-3-3-3-3-3-3-3-3-3-3-3-3-3-|
G|-2-2-2-2-0-0-0-0-0-0-0-0-0-0-0-0-|
D|-0-0-0-0-0-0-0-0-4-4-4-4-0-0-0-0-|
A|-x-x-x-x-x-x-x-x-x-x-x-x-x-x-x-x-|
E|-3-3-3-3-3-3-3-3-3-3-3-3-3-3-3-3-|

[ Tab from: http://www.guitartabs.cc/tabs/s/switchfoot/learning_to_breathe_tab_ver_2.html ]
BRIDGE
               C/G(x3203x)        G (320033)
So this is the way, that I say, I need you.
            Dsus (xx0232)
This is the way, this is the way that I'm


  CHORUS     
 C/G  Em7  C/G  Em7   | C/G  Em7  Dsus  C/G
e|-3--2---3---2-----|-3--2---2-----3
B|-3--2---3---2-----|-3--2---3-----3
G|-0--0---0---0-----|-0--0---2-----0
D|-2--3---2---3-----|-2--3---0-----2
A|-3-3---3----3-----|-3--3---x-----3
E|-x-0----x---0-----|-x--0---x-----x

VERSE X2
CHORUS x2

then: x2
e|-33--xx|---------------------------------|
B|-33--33|-3-3-3-3-3-3-3-3-3-3-3-3-3-3-3-3-|
G|-00--00|-2-2-2-2-0-0-0-0-0-0-0-0-0-0-0-0-|
D|-22--22|-0-0-0-0-0-0-0-0-4-4-4-4-0-0-0-0-|
A|-22--33|-x-x-x-x-x-x-x-x-x-x-x-x-x-x-x-x-|
E|-00--00|-3-3-3-3-3-3-3-3-3-3-3-3-3-3-3-3-|


(BRIDGE 2)
 C/G  Em7  C/G  Em7   | C/G  Em7  Dsus
e|-3--2---3---2-----|-3--2---2--
B|-3--2---3---2-----|-3--2---3-
G|-0--0---0---0-----|-0--0---2-
D|-2--3---2---3-----|-2--3---0-
A|-3-3---3----3-----|-3--3---x-
E|-x-0----x---0-----|-x--0---x-


CHORUS
C/G  Em7  C/G  Em7   | C/G  Em7  Dsus  C/G
e|-3--2---3---2-----|-3--2---2-----3
B|-3--2---3---2-----|-3--2---3-----3
G|-0--0---0---0-----|-0--0---2-----0
D|-2--3---2---3-----|-2--3---0-----2
A|-3-3---3----3-----|-3--3---x-----3
E|-x-0----x---0-----|-x--0---x-----x

C/G  Em7  X3| Dsus  C/G  X2| Em7|
e|-3--2----|-2-----3------|-2--|
B|-3--2----|-3-----3------|-2--|
G|-0--0----|-2-----0------|-0--|
D|-2--3----|-0-----2------|-3--|
A|-3-3----|-x-----3------|-3--|
E|-x-0-----|-x-----x------|-0--|



(repeat and fade)
Comments