Switchfoot - Innocence Again Chords & Tabs

 

Innocence Again Chords & Tabs

Switchfoot Chords & Tabs

Version: 1 Type: Tab 0 ratings
1 star 2 stars 3 stars 4 stars 5 stars
comments

Innocence Again Tab

   
Tabbed By: Kevin Yang
Email: Littledude826@yahoo.com

In my opinion this is one of switchfoots best songs ever.. its off of the learning to
breath cd so if u dont have it go out and get it now
   Bb5      F5       G5       C5
 68xxxx   13xxxx   35xxxx   x35xxx

 Intro
         Dm                 Bb           F            A
|--------5-|---5---5--5-|------------|------------|----------------|
|--------6-|---6---6--6-|---6---6--6-|---1---1--1-|---5---5-5-5----|
|--------7-|---7---7--7-|---7---7--7-|---2---2--2-|---6---6-6-6----|
|--------7-|---7---7--7-|---8---8--8-|---3---3--3-|---7---7-7-7----|
|--------5-|------------|---8---8--8-|---3---3--3-|---7---7---7----|
|----------|------------|------------|------------|----------------|
|
|----------|------------|------------|------------|--------------1-|
|----------|------------|------------|------------|-------------3--|
|----------|------------|------------|------------|------------2---|
|----------|------------|------------|------------|-----------0----|
|----------|------------|------------|------------|----------------|
|----------|------------|------------|------------|----------------|


 Verse 1
  Dm                     Bb            F               A
|----5---5--5----|------------------|-------------|----------------------|
|----6---6--6----|------6---6--6----|----1---1--1-|----5-----5----5------|
|----7---7--7----|------7---7--7----|----2---2--2-|----6-----6----6------|
|----7---7--7----|------8---8--8----|----3---3--3-|----7-----7----7------|
|----------------|------8---8--8----|----3---3--3-|----7-----7----7------|
|----------------|------------------|-------------|----------------------|
|
|----------------|------------------|-------------|------------------1---|
|--------------3-|------------------|-------------|-2--2-2-3---5----3----|
|-------------3--|----------------2-|-------------|-2--2-2-2---2---2-----|
|------------3---|---------------3--|-------------|-2--2-2-2---2--0------|
|-----------1----|--------------3---|-------------|-0--0---0---0---------|
|----------------|-------------1----|-------------|----------------------|

  Dm                 Bb                 F               A
|------5---5--5----|------------------|---------------|----------------|
|------6---6--6----|------6---6--6----|------1---1--1-|----5-----5---5-|
|------7---7--7----|------7---7--7----|------2---2--2-|----6-----6---6-|
|------7---7--7----|------8---8--8----|------3---3--3-|----7-----7---7-|
|------------------|------8---8--8----|------3---3--3-|----7-----7---7-|
|------------------|------------------|---------------|----------------|
|
|------------------|------------------|---------------|----------------|
|----------------3-|------------------|---------------|-2--2-2-3-2-----|
|---------------3--|----------------2-|---------------|-2--2-------2---|
|--------------3---|---------------3--|---------------|-2--2-----------|
|-------------1----|--------------3---|---------------|-0--0-----------|
|------------------|-------------1----|---------------|----------------|


   Pre-Chorus
    Gtr III (plays chords notated by slashes)
    Bb5              F5                G5              C5
    / / / / / //  /  / / / / / // /    / / / / / // /  /  /  /
            ~                ~      2x           ~
||-----------------|----------------||---------------|-------------||
||o----------------|---------------o||---------------|-------------||
||----------7------|---------2------||---------3-----|-5--5--5-----||
||-----------------|----------------||---------------|-5--5--5-----||
||o-----8-8----8\--|-----3-3----3--o||-----5-5----5--|-3--3--3-----||
||--6-6------------|-1-1------------||-3-3-----------|-------------||


   Chorus 1
    Dm                Bb
||--5--5------5-5-5-|----------------|
||o-6--6------6-6-6-|--6---6---6-6-6-|
||--7--7------7-7-7-|--7---7---7-7-7-|
||--7--7------7-7-7-|--8---8---8-8-8-|
||o-5--5------------|--8---8---8-8-8-|
||------------------|--6---6---------|
|
||------------------|----------------|
||o---------3-5---6-|----------------|
||-------/2---------|----------------|
||------------------|----------------|
||o-----------------|----------------|
||------------------|----------------|


 1st ending
  F                   A
|-------------------|---------------------||
|-1---1-------1-1-1-|-5---5-------5-5-5--o||
|-2---2-------2-2-2-|-6---6-------6-6-6---||
|-3---3-------3-3-3-|-7---7-------7-7-7---||
|-3---3-------3-3-3-|-7---7-------7-7-7--o||
|-1---1-------------|-5---5---------------||
|
|-------------------|---------------------||
|-------------------|--------------------o||
|-3-2---------------|-6-------------------||
|-------3-----------|---7-----------------||
|-------------------|-------7------------o||
|-------------------|---------------------||


  2nd ending
  Bb                A         (Dm)                                      2x
|-----------------|--------||----------------------|--------------------||
|-----------------|--------||o-----6---------------|-------6-----------o||
|-7---7-7---7-7-7-|-6------||--7---------------5---|--7------------5----||
|-8---8-8---8-8-8-|-7------||----7----7-5----7---7-|-----7---7-5-7---7--||
|-8---8-8---8-8-8-|-7------||o---------------------|-------------------o||
|-6---6-6---6-6-6-|-5------||----------------------|--------------------||
|
|-----------------|--------||----------------------|--------------------||
|-----------------|--------||o----------3---/5---5-|-------------------o||
|-3---------------|--------||--------/2------------|--------------------||
|---3-------------|--------||----------------------|--------------------||
|-------1---------|-0------||o---------------------|-------------------o||
|-----------------|--------||----------------------|--------------------||


 Verse 2
  Dm           Bb           F            A
|---5---5--5-|------------|------------|---------------|
|---6---6--6-|---6---6--6-|---1---1--1-|---5-5-5-5-5-5-|
|---7---7--7-|---7---7--7-|---2---2--2-|---6-6-6-6-6-6-|
|---7---7--7-|---8---8--8-|---3---3--3-|---7-7-7-7-7-7-|
|------------|---8---8--8-|---3---3--3-|---7-7-7-7-7-7-|
|------------|------------|------------|---------------|
                                           
  Dm           Bb             F            A
|---5---5--5-|--------------|------------|----------------|
|---6---6--6-|---6-6-6-6--6-|---1---1--1-|---5-5-5-5-5-5--|
|---7---7--7-|---7-7-7-7--7-|---2---2--2-|---6-6-6-6-6-6--|
|---7---7--7-|---8-8-8-8--8-|---3---3--3-|---7-7-7-7-7-7--|
|------------|---8-8-8-8--8-|---3---3--3-|---7-7-7-7-7-7--|
|------------|--------------|------------|----------------|


 Play Pre-Chorus again

[ Tab from: http://www.guitartabs.cc/tabs/s/switchfoot/innocence_again_tab.html ]
 Chorus 2
    Dm                Bb
||--5--5------5-5-5-|----------------|
||o-6--6------6-6-6-|--6---6---6-6-6-|
||--7--7------7-7-7-|--7---7---7-7-7-|
||--7--7------7-7-7-|--8---8---8-8-8-|
||o-5--5------------|--8---8---8-8-8-|
||------------------|--6---6---------|
|
||------------------|----------------|
||o---------3-5---6-|----------------|
||-------/2---------|----------------|
||------------------|----------------|
||o-----------------|----------------|
||------------------|----------------|


 1st ending
  F                   A
|-------------------|---------------------||
|-1---1-------1-1-1-|-5---5-------5-5-5--o||
|-2---2-------2-2-2-|-6---6-------6-6-6---||
|-3---3-------3-3-3-|-7---7-------7-7-7---||
|-3---3-------3-3-3-|-7---7-------7-7-7--o||
|-1---1-------------|-5---5---------------||
|
|-------------------|---------------------||
|-------------------|--------------------o||
|-3-2---------------|-6-------------------||
|-------3-----------|---7-----------------||
|-------------------|-------7------------o||
|-------------------|---------------------||


  2nd ending
  Bb                  A
|-------------------|-----------||
|-------------------|-----------||
|-7---7-7-----7-7-7-|-----------||
|-8---8-8-----8-8-8-|-----------||
|-8---8-8-----8-8-8-|---------3-||
|-6---6-6-----6-6-6-|-5---------||
|
|-------------------|-----------||
|-------------------|-----------||
|-3-----------------|-----------||
|---3---------------|-----------||
|-------1-----------|-0---------||
|-------------------|-----------||


 Guitar Solo
  (dist elec)
|-------------------|----------------|---------------|----------------|
|-------------------|----------------|---------------|----------------|
|--------3----3-----|----------------|----3--5-5-3---|----6-6-7-6-----|
|----3---3h5--3-----|------------3---|---------------|------------8-7-|
|-5----5--------5-3-|----3-------3---|---------------|----------------|
|-------------------|-1--1-1-/5----5-|-3-----------3-|-5--------------|


   (acoustic)
|-------------5--/8-|-------6-6-/8-5-|-(5)\------------|---------------|
|---3-/5-6-/8-------|----------------|-------6-6--/10--|-10\-5-5-/8-6/-|
|-------------------|----------------|-----------------|---------------|
|-------------------|----------------|-----------------|---------------|
|-------------------|----------------|-----------------|---------------|
|-------------------|----------------|-----------------|---------------|

                                                            Bridge
|---------------|--------------|-------------|-------------|------|
|-7----------/6-|--------------|------6\--1--|-2---2-3-5-3-|-rest-|
|---7-----------|-----5--------|-------------|-------------|-nine-|
|-----7---------|-------5\3-/7-|----7--------|-------------|-bars-|
|-------7\5-----|--------------|-------------|-------------|------|
|---------------|--------------|-------------|-------------|------|


   Chorus 3
    Dm                Bb
||--5--5------5-5-5-|----------------|
||o-6--6------6-6-6-|--6---6---6-6-6-|
||--7--7------7-7-7-|--7---7---7-7-7-|
||--7--7------7-7-7-|--8---8---8-8-8-|
||o-5--5------------|--8---8---8-8-8-|
||------------------|--6---6---------|
|
||------------------|----------------|
||o---------3-5---6-|----------------|
||-------/2---------|----------------|
||------------------|----------------|
||o-----------------|----------------|
||------------------|----------------|


 1.
  F                   A
|-------------------|---------------------||
|-1---1-------1-1-1-|-5---5-------5-5-5--o||
|-2---2-------2-2-2-|-6---6-------6-6-6---||
|-3---3-------3-3-3-|-7---7-------7-7-7---||
|-3---3-------3-3-3-|-7---7-------7-7-7--o||
|-1---1-------------|-5---5---------------||
|
|-------------------|---------------------||
|-------------------|--------------------o||
|-3-2---------------|-6-------------------||
|-------3-----------|---7-----------------||
|-------------------|-------7------------o||
|-------------------|---------------------||


  2.
  Bb                  A
|-------------------|--------------|
|-------------------|--------------|
|-7---7-7-----7-7-7-|-6------------|
|-8---8-8-----8-8-8-|-7------------|
|-8---8-8-----8-8-8-|-7------------|
|-6---6-6-----6-6-6-|-5------------|
|
|                          1/4 bend
|-------------------|--------------|
|-------------------|------5b5.5---|
|-3-----------------|--------------|
|---3---------------|--------------|
|-------1-----------|-0------------|
|-------------------|--------------|


   Outro
    Bb5                      F5
||-------------------------|--------------------------|
||o------------------------|--------------------------|
||--------------2--3--2----|---------------2--3--2----|
||--3-----3--------------3-|------------------------3-|
||o-1-----1----------------|--3------3----------------|
||-------------------------|--1------1----------------|
|
||-------------------------|--------------------------|
||o------------------------|--------------------------|
||--------------2--3--2----|---------------2--3--2----|
||-----------------------3-|------------------------3-|
||o------------------------|--------------------------|
||-------------------------|--------------------------|
|
||-------------------------|--------------------------|
||o------10----10-11-10----|--------10----10-11-10----|
||----10----10----------10-|-----10----10----------10-|
||--8----------------------|--------------------------|
||o------------------------|--8-----------------------|
||-------------------------|--------------------------|


 1.,2.,3. endings
  Bb5                        F5                        4x
|--------------------------|---------------------------||
|--------------------------|--------------------------o||
|---------------2--3--2----|---------------3--2-0------||
|--3------3--------------3-|-----------------------3---||
|--1------1----------------|--3------3----------------o||
|--------------------------|--1------1-----------------||
|
|                                                      4x
|--------------------------|---------------------------||
|--------------------------|--------------------------o||
|---------------2--3--2----|---------------3--2-0------||
|------------------------3-|-----------------------3---||
|--------------------------|--------------------------o||
|--------------------------|---------------------------||
|
|                                                      4x
|--------------------------|---------------------------||
|--------10----10-11-10----|--------10----11-10-8-----o||
|-----10----10----------10-|-----10----10---------10---||
|--8-----------------------|---------------------------||
|--------------------------|--8-----------------------o||
|--------------------------|---------------------------||


  4th ending
  Bb5                       F
|-------------------------|----------|--------*|
|-------------------------|----------|--------*|
|---------3--2--3--2-0----|----------|--------*|
|--3--------------------3-|----------|--------*|
|--1----------------------|----------|--------*|
|-------------------------|-1--------|--------*|
|
|-------------------------|----------|--------*|
|-------------------------|----------|--------*|
|---------3--2--3--2-0----|----------|--------*|
|-----------------------3-|----------|--------*|
|-------------------------|----------|--------*|
|-------------------------|-1--------|--------*|
|
|-------------------------|----------|--------*|
|--------11-10-11-10-8----|----------|--------*|
|-----10---------------10-|----------|--------*|
|--8----------------------|----------|--------*|
|-------------------------|-8--------|-(8)----*|
|-------------------------|----------|--------*|
Comments