Switchfoot - Innocence Again Chords & Tabs

 

Innocence Again Chords & Tabs

Switchfoot Chords & Tabs

Version: 1 Type: Bass Tab 0 ratings
1 star 2 stars 3 stars 4 stars 5 stars
comments

Innocence Again Bass Tab

Tabbed By: Kevin Yang
Email: Littledude826@yahoo.com

one of their greatest ever its off learnin to breath
Verse  (1st part)	(2nd part) X3
G|---------------|----------------------------------------|
D|-----x7-----x7-|---x7-578-------------------------------|
A|---5-----x5----|x5---5----x8------x3-----x7-------------|
E|---------------|----------------1---1345----------------|

Pre-Chorus
G|--------------------------------------------------------|
D|--------------------------------------------------------|
A|--------------------------------------------------------|
E|-66666666-11111111-66666666-11111111-33333333-1-1-1-1---|
[ Tab from: http://www.guitartabs.cc/tabs/s/switchfoot/innocence_again_btab.html ]
Chorus
G|---------------------------------------------------------|
D|---------------------------------------------------------|
A|--5-5----------------------------5--5----8---------------|
E|-----6--56--61--11--11-15---0--------5------66666666-5---|

1st part of verse twice, then same as above
Pre-Chorus
Chorus

Bridge
G|--------------------------------------------------------|
D|---3------------------1----4----------------------------|
A|------1--3-1-----3--3---3-------------------------------|
E|--------------------------------------------------------|

G|--------------------------------------------------------|
D|-----x7---------------7---------------------------------|
A|--x5--------x8----x3----x7--5---------------x3---x7-----|
E|---------x6-----1-------------x5--x6--x1--1-----5-------|

Verse
Chorus

E|--6--------1---- repeat till end
Comments