Switchfoot - Gone Chords & Tabs

 

Gone Chords & Tabs

Switchfoot Chords & Tabs

Version: 3 Type: Tab

Gone Tab

   
intro: (distorted)
e-2~--4~--2~--4~--2~--4~--2~--4~--2~-------2~-------2~-------2~------>
B-5~--7~--5~--7~--5~--7~--5~--7~--5~-------5~-------5~-------5~------>
G-------------------------------11--11-5~11--11-5~11--11-5~11--11-5~->
D-------------------------------22--22-5~22--22-5~22--22-5~22--22-5~->
A-------------------------------22--22-2~22--22-2~22--22-2~22--22-2~->
D-------------------------------22--22---22--22---22--22---22--22---->

verse 1:
e---2~-------2~-------2~-------2~-------2~-------2~-------2~-------2~------>
B---5~-------5~-------5~-------5~-------5~-------5~-------5~-------5~------>
G-11--11-5~11--11-5~11--11-5~11--11-5~11--11-5~11--11-5~11--11-5~11--11-5~->
D-22--22-5~22--22-5~22--22-5~22--22-5~22--22-5~22--22-5~22--22-5~22--22-5~->
A-22--22-2~22--22-2~22--22-2~22--22-2~22--22-2~22--22-2~22--22-2~22--22-2~->
D-22--22---22--22---22--22---22--22---22--22---22--22---22--22---22--22---->
she told him she'd rather fix her makeup than try and fix what's going on
but the problem keeps on callin' even with the cell phone gone she told him
that she believes in livin' bigger than she's livin' now but her world
keeps spinnin' backwards and upside down

pre-chorus 1:
e-------0~~---------0-->
B-0~~---0~~---0~~---0-->
G-2~~---4~~---2~~---4-->
D-2~~---4~~---2~~---4-->
A-0~~---2~~---0~~---2-->
D---------------------->
don't say so long and throw yourself wrong don't spin today away 'cause
today will soon be

chorus:
e----00000~000000~000000~00000--2~--------2~------->
B-5~5-----------5~5----5~5------5~--------5~------->
G-4~4----2~2----6~6----5~5----11--11-4~-11--11-4~-->
D-2~2----2~2----6~6----5~5----22--22-4~-22--22-4~-->
A-2~2----0~0----4~4----3~3----22--22-2~-22--22-2~-->
D-2~2-------------------------22------------------->
gone, like yesterday is gone like history is gone just try to prove me
wrong and pretend like you're immortal

verse 2:
e---2~-------2~-------2~-------2~-------2~-------2~-------2~-------2~------>
B---5~-------5~-------5~-------5~-------5~-------5~-------5~-------5~------>
G-11--11-5~11--11-5~11--11-5~11--11-5~11--11-5~11--11-5~11--11-5~11--11-5~->
D-22--22-5~22--22-5~22--22-5~22--22-5~22--22-5~22--22-5~22--22-5~22--22-5~->
A-22--22-2~22--22-2~22--22-2~22--22-2~22--22-2~22--22-2~22--22-2~22--22-2~->
D-22--22---22--22---22--22---22--22---22--22---22--22---22--22---22--22---->
she said, he said, live like no tomorrow everyday we borrow brings us one
step closer to the edge: infinity where's your treasure, where's your hope,
if you get the world and lose your soul? she pretends like she pretends
like she's immortal

pre-chorus 2:
e-------0~~---------0-->
B-0~~---0~~---0~~---0-->
G-2~~---4~~---2~~---4-->
D-2~~---4~~---2~~---4-->
A-0~~---2~~---0~~---2-->
D---------------------->
don't say so long, you're not that far gone this could be your big chance
to make-up today will soon be
[ Tab from: http://www.guitartabs.cc/tabs/s/switchfoot/gone_tab_ver_3.html ]
chorus 2:
e----0000~00000~00000~0000---0000~00000~00000~0000--2~--------2~------->
B-5~5---------5~5---4~4---5~5---------5~5---5~5-----5~--------5~------->
G-4~4---2~2---6~6---4~4---4~4---2~2---6~6---5~5---11--11-4~-11--11-4~-->
D-2~2---2~2---6~6---4~4---2~2---2~2---6~6---5~5---22--22-4~-22--22-4~-->
A-2~2---0~0---4~4---2~2---2~2---0~0---4~4---3~3---22--22-2~-22--22-2~-->
D-2~2---------------------2~2---------------------22--22----22--22----->
gone, like yesterday is gone like history is gone the world keeps spinning
on you're going, going, gone like summer break is gone, like saturday is
gone just try to prove me wrong you pretend like you're immortal, you're
immortal, you're immortal, you're immortal ha-ah!

bridge 1:
e-------------------00000000-00000000-------------------00000000-000000000->
B-55555555-88888888-00000000-55555555-55555555-88888888-00000000-555555555->
G-44444444-77777777-22222222-55555555-44444444-77777777-22222222-555555555->
D-22222222-55555555-22222222-55555555-22222222-55555555-22222222-555555555->
A-22222222-55555555-00000000-33333333-22222222-55555555-00000000-333333333->
D-22222222-55555555-------------------22222222-55555555-------------------->
we are not infinite we are not permanent nothing is immediate we're so
confident in our accomplishments look at our decadence

chorus 3:
e-------------------------------------------------------------------------->
B---5---55---2---22-----6---66-----2---22---5---55---2---22-----6---66----->
G---4---44---2---22-----6---666----2---22---4---44---2---22-----6---666---->
D-2-2-22-2-0-0-00-0-0h4-4-44-4-4-0-0-00-0/2-2-22-2-0-0-00-0-0h4-4-44-4-4-0->
A-------------------------------------------------------------------------->
D-------------------------------------------------------------------------->
gone, like Frank Sinatra, like Elvis and his mom, like Al Pacino’s cash,
nothing lasts in this life gone, my high school dreams are gone, my child-hood sweets 
gone life is a day that doesn’t last for long

chorus 3:
e----0000~00000~00000~0000---0000~00000~00000~0000---0000~00000~00000~0000->
B-5~5---------5~5---------5~5---------5~5---------5~5---------5~5---------->
G-4~4---2~2---6~6---2~2---4~4---2~2---6~6---2~2---4~4---2~2---6~6---2~2---->
D-2~2---2~2---6~6---2~2---2~2---2~2---6~6---2~2---2~2---2~2---6~6---2~2---->
A-2~2---0~0---4~4---0~0---2~2---0~0---4~4---0~0---2~2---0~0---4~4---0~0---->
D-2~2---------------------2~2---------------------2~2---------------------->
Life is more than money, time was never money time was never cash, life is
still more than girls, life is more than hundred dollar bills and roto-tom
fills, life is more than fame and rock and roll and thrills, all the riches
of the kings end up in wills we’ve got information in the information age
but do we know what life is outside of our convenient Lexus cages?

chorus 3:
e----0000~00000~00000~0000---0000~00000~00000~0->
B-5~5---------5~5---------5~5---------5~5------->
G-4~4---2~2---6~6---2~2---4~4---2~2---6~6---2~2->
D-2~2---2~2---6~6---2~2---2~2---2~2---6~6---2~2->
A-2~2---0~0---4~4---0~0---2~2---0~0---4~4---0~0->
D-2~2---------------------2~2------------------->
she said he said live like no tomorrow every moment that we borrow brings
us closer to the God who’s not short of cash hey Bono, I’m glad you asked
life is still worth living, life is still worth living, life is still worth
living...