Switchfoot - Gone Chords & Tabs

 

Gone Chords & Tabs

Switchfoot Chords & Tabs

Version: 2 Type: Tab 0 ratings
1 star 2 stars 3 stars 4 stars 5 stars
comments

Gone Tab

----------------------------------------------------------------------------
			     GONE - SWITCHFOOT
----------------------------------------------------------------------------
Tabbed by:froggy2k2002
Email: froggy2k2002@yahoo.com

Tuning:STANDARD
GUITAR 2	INTRO/VERSE			 GUITAR 1 INTRO/VERSE
e|-7---9-----| INTRO		e|----------2----------2-------|PLAY
B|-7---9-----| X4 THEN GUITAR 1	B|----------2----------2-------|THROUGH
G|-9---7-----|STARTS		G|-1-1--1-1-4-1-1--1-1-4-1-1---|OUT
D|-9---------|			D|-2-2--2-2-4-2-2--2-2-4-2-2---|INTRO
A|-7---------|			A|-2-2--2-2-2-2-2--2-2-2-2-2---|AND
E|-----------|			E|-----------------------------|VERSE


PRE-CHORUS			    CHORUS 1 
e|-----2-------2-----|BOTH GUITARS    e|-----------4----3---------|
B|-----2-------2-----|PLAY PRE-CHORUS B|------2----5----5---------|
G|-2---4---2---4-----|AND CHORUS 1    G|-1----2----6----5---------|
D|-2---4---2---4-----|AND	2         D|-2----2----6----5---------|
A|-----2-------2-----|		  A|-2---------4----3---------|
E|-------------------|		  E|--------------------------|


BOTH GUITARS PLAY INTRO/VERSE

GUITAR 1 PLAYS PRE-CHORUS
[ Tab from: http://www.guitartabs.cc/tabs/s/switchfoot/gone_tab_ver_2.html ]
CHORUS 2
e|-----------4----2--------------4----3-------------2----------2-----------|
B|------2----5----4---------2----5----5-------------2----------2-----------|
G|-1----2----6----4----1----2----6----5----1-1--1-1-4-1-1--1-1-4-----------|
D|-2----2----6----4----2----2----6----5----2-2--2-2-4-2-2--2-2-4-----------|
A|-2---------4----2----2---------4----3----2-2--2-2-2-2-2--2-2-2-----------|
E|-------------------------------------------------------------------------|


BRIDGE GUITAR 1
e|--------3------5------7------------7-------------|
B|--------3------5------7------------7-------------|
G|-1------4------6------8------------8-------------|  X2 
D|-2-(X8)-5-(X8)-7-(X6)-9-(LET RING)-9-(PICK UP)---| 
A|-2------5------7------9------------9----NOTE-----|
E|--------3------5------7------------7-------------|

BRIDGE SOLO GUITAR 2
e|----------------------------|
B|---------17^18--------------|
G|----------------16----------| FEEL FREE TO ADJUST
D|-17-----------------17///14-|
A|-----15---------------------|
E|----------------------------|

GUITAR 1 PLAYS CHORUS1 PALM MUTED 2X
THEN PLAYS OPENLY.




| /  slide up
| ^  bend note
============================================================================
Comments