Switchfoot - Gone Chords & Tabs

 

Gone Chords & Tabs

Switchfoot Chords & Tabs

Version: 1 Type: Tab 0 ratings
1 star 2 stars 3 stars 4 stars 5 stars
comments

Gone Tab

I realized there were some holes in this song, i filled them in
Gone, By Switchfoot, Tabbed by MOG
Intro:
e------4----
B-5----3---- 
G-4---------
D----------- (4x)
A-----------
E-----------

e-0-0---0-0----0-0-4-0-0-------
B-0-0-5-0-0----0-0-3-0-0-------
G-1-1-4-1-1-4--1-1---1-1-4----- (2x)
D-2-2---2-2-4--2-2---2-2-4-----
A-2-2---2-2-2--2-2---2-2-2----
E-0-0---0-0----0-0---0-0-----

Verse
e-0-0---0-0----0-0-4-0-0-------
B-0-0-5-0-0----0-0-3-0-0-------
G-1-1-4-1-1-4--1-1---1-1-4----- (4x)
D-2-2---2-2-4--2-2---2-2-4-----
A-2-2---2-2-2--2-2---2-2-2-----
E-0-0---0-0----0-0---0-0-------

Prechorus 
e---------------------
B--2---4---6----------
G--2---2---4---9------
D--0---2---4---7------
A--------------7------
E---------------------

Chorus 1
e----------1---0---0--
B--5-------2---1---0--
G--4---2---1---2---1--
D------2-------2---2--
A------0-------0---2--
E------------------0--

Postchorus
e-0-0---0-0----0-0-4-0-------
B-0-0-5-0-0----0-0-3-0-------
G-1-1-4-1-1-4--1-1---1-4----- 
D-2-2---2-2-4--2-2---2-4-----
A-2-2---2-2-2--2-2---2-2-----
E-0-0---0-0----0-0-----------



Chorus 2
e----------1---0---0--
B--5-------2---1---0--
G--4---2---1---2---1--
D------2-------2---2--(2x)
A------0-------0---2--
E------------------0--



e--0-0--0-0-------
B--0-0--0-0-------
G--2-2--2-2-4-----
D--2-2--2-2-4-----
A--1-1--1-1-2-----
E--0-0--0-0-------

[ Tab from: http://www.guitartabs.cc/tabs/s/switchfoot/gone_tab.html ]
Bridge
e--0-0-0-0-0-0-0-0-----------------0-0-0-0-0-0-0-0----------------------------
B--0-0-0-0-0-0-0-0-----------------0-0-0-0-0-0-0-0----------------------------
G--2-2-2-2-2-2-2-2-----------------2-2-2-2-2-2-2-2--------------21(21)--------
D--1-1-1-1-1-1-1-1-5-5-5-5-5-5-5-5-2-2-2-2-2-2-2-2--12-14-12-10-------14-12-10
A--1-1-1-1-1-1-1-1-5-5-5-5-5-5-5-5-2-2-2-2-2-2-2-2----------------------------
E--0-0-0-0-0-0-0-0-3-3-3-3-3-3-3-3-0-0-0-0-0-0-0-0----------------------------

e--0-0-0-0-0-0-0-0-----------------0-0-0-0-0-0-0-0--
B--0-0-0-0-0-0-0-0-----------------0-0-0-0-0-0-0-0--
G--2-2-2-2-2-2-2-2-----------------2-2-2-2-2-2-2-2--
D--1-1-1-1-1-1-1-1-5-5-5-5-5-5-5-5-2-2-2-2-2-2-2-2--
A--1-1-1-1-1-1-1-1-5-5-5-5-5-5-5-5-2-2-2-2-2-2-2-2--
E--0-0-0-0-0-0-0-0-3-3-3-3-3-3-3-3-0-0-0-0-0-0-0-0--

"Gone, like Frank Sinatra..."
e-------------------		
B-------------------
G-------------------
D--2-2-2-2-2-2----%-
A--2-2-2-2-2-2----%-
E--0-0-0-0-0-0----%-
figure out the strumming, it's hard to hear, and some palm mutes, and then...
e------------------- the same thing for this one		
B-------------------
G--2-2-2-2-2-2----%-
D--2-2-2-2-2-2----%-
A--0-0-0-0-0-0----%-
E-------------------



Outro "Life is more than money..."
(Play whenever they say "gone")
e--0----
B--2----
G--2----
D--2----
A--0----
E-------

Intro
Verse
Prechorus
Chorus 1
Postchorus
Verse
Prechorus
Chorus 2
Bridge
Outro
Comments