Switchfoot - Fatal Wound Chords & Tabs

 

Fatal Wound Chords & Tabs

Switchfoot Chords & Tabs

Version: 1 Type: Tab 0 ratings
1 star 2 stars 3 stars 4 stars 5 stars
comments

Fatal Wound Tab

   
-The Fatal Wound

Tuning - EADGBE


Intro/Verse

  F       Bb       F        Bb      G
E-1-------1--------1--------1--------------------------------------|
B-1-------3--------1--------3-------3------------------------------|
G-2-------3--------2--------3-------4------------------------------|
D-3-------3--------3--------3-------5------------------------------|
A-----------------------------------5------------------------------|
E-----------------------------------3------------------------------|

Chorus

  D       G        D        G
E---------------------------------------------------------------------|
B-7-------3--------7--------3-----------------------------------------|
G-7-------4--------7--------4-----------------------------------------|
D-7-------5--------7--------5-----------------------------------------|
A-5-------5--------5--------5-----------------------------------------|
E---------3-----------------3-----------------------------------------|
[ Tab from: http://www.guitartabs.cc/tabs/s/switchfoot/fatal_wound_tab.html ]
  D       G        Bb         D G D G
E------------------1-------------------------------------------------|
B-7-------3--------3-------------------------------------------------|
G-7-------4--------3-------------------------------------------------|
D-7-------5--------3-------------------------------------------------|
A-5-------5--------1-------------------------------------------------|
E---------3----------------------------------------------------------|

  D G D G

Verse 2

(1st Guitar)
  F       Bb       F        Bb      G
E-1-------1--------1--------1--------------------------------------|
B-1-------3--------1--------3-------3------------------------------|
G-2-------3--------2--------3-------4------------------------------|
D-3-------3--------3--------3-------5------------------------------|
A-----------------------------------5------------------------------|
E-----------------------------------3------------------------------|

(2nd Guitar)

E-------1-1---------------1-1-------3-----------------------------|
B-------1-3---------------1-3-------3-----------------------------|
G-------2-3---------------2-3-------4-----------------------------|
D-------3-3---------------3-3-------5-----------------------------|
A-----------------------------------5-----------------------------|
E-----------------------------------3-----------------------------|

(repeat Chorus)
Comments