Switchfoot - Dare You To Move Chords & Tabs

 

Dare You To Move Chords & Tabs

Switchfoot Chords & Tabs

Version: 2 Type: Bass Tab 0 ratings
1 star 2 stars 3 stars 4 stars 5 stars
comments

Dare You To Move Bass Tab

   
-------------------------------------------------------------------------------
			     Switchfoot - Dare You to Move
-------------------------------------------------------------------------------

Tabbed By : MiltownBass

This is awesome song to play and this is the correct way to play it.
Please Rate!

Tuning: Standard

Intro - No bass

Verse 1
  (0:37)
G|---------------------------------------------------------------------------|
D|---------------------------------------------------------------------------|
A|---------------------------------------------------------------------------|
E|-0~-----0~-----3~-----7~---------------------------------------------------|

Chorus
  (0:58)
G|---------------------------------------------------------------------------|
D|---------------------------------------------------------------------------|
A|-7~----------------------7~------------------------------------------------|
E|--------7~-----5~-----7---------7~-----5~-----7~---------------------------|

Fill
  (1:27)
G|---------------------------------------------------------------------------|
D|---------------------------------------------------------------------------|
A|---------------------------------------------------------------------------|
E|-0~-----0~-----------------------------------------------------------------|

Verse 2
  (1:38)
G|---------------------------------------------------------------------------|
D|---------------------------------------------------------------------------|
A|-2h4-4-4---2h4-4-4---4-4p2-2-----------------------------------------------|
E|---------------------------------------------------------------------------|

G|---------------------------------------------------------------------------|
D|---------------------------------------------------------------------------|
A|-2h4-4-4---2h4-4-4---4-4p2-2---0-0-12-0---0-0-12-0-------------------------|
E|---------------------------------------------------------------------------|
[ Tab from: http://www.guitartabs.cc/tabs/s/switchfoot/dare_you_to_move_btab_ver_2.html ]
G|---------------------------------------------------------------------------|
D|---------------------------------------------------------------------------|
A|---------------------------------------0-0-12-0---0-0-12-0---0-0-2-2-------|
E|-5-5-4-4-2-2-0-2---2-2-0-2---2-2-4-4---------------------------------------|

G|---------------------------------------------------------------------------|
D|---------------------------------------------------------------------------|
A|-2h4-4-4---2h4-4-4---4-4p2-2---0-0-12-0---0-0-12-0-------------------------|
E|---------------------------------------------------------------------------|

G|---------------------------------------------------------------------------|
D|---------------------------------------------------------------------------|
A|---------------------------------------0-0-12-0---0-0-12-0---0-0-----------|
E|-5-5-4-4-2-2-0-2---2-2-0-2---2-2-4-4-----------------------------7-7-------|

Chorus (2:12)

Bridge (fast picking)
  (2:39)
G|---------------------------------------------------------------------------|
D|---------------------------------------------------------------------------|
A|-7(16x)------------7(16x)------------4(16x)--------------------------------|
E|----------5(16x)------------5(16x)------------5(16x)---2~-----/7~----------|

Chorus 2 (fast picking)
  (3:20)
G|---------------------------------------------------------------------------|
D|---------------------------------------------------------------------------|
A|-7(16x)-----------------------------7(16x)---------------------------------|
E|----------7(16x)---5(28x)---7(4x)------------7(16x)---5(16x)---------------|

G|---------------------------------------------------------------------------|
D|---------------------------------------------------------------------------|
A|-4(16x)--------------------------------------------------------------------|
E|----------5(16x)---7-7-7--0~-----------------------------------------------|


| /  slide up
| h  hammer-on
| p  pull-off
| ~  vibrato
===============================================================================
Comments