Switchfoot - Dare You To Move Chords & Tabs

 

Dare You To Move Chords & Tabs

Switchfoot Chords & Tabs

Version: 1 Type: Bass Tab 0 ratings
1 star 2 stars 3 stars 4 stars 5 stars
comments

Dare You To Move Bass Tab

tabbed by jacob edwards---jacob_edwards72@hotmail.com

I Dare You To Move

> = note times 8

~ = let ring


Riff 1 0:39      0:53
|--------------|--------------------------------------------------|
|--------------|--------------------------------------------------|
|--------------|--------------------------------------------------|
|--0~----0~----|--3~--7~------------------------------------------|

Chorus "Dare you to move..." 1:00 to 1:27
|------------------------------------------------------------------|
|------------------------------------------------------------------|
|--7~--2~--0~-------2~---7~--2~--0~---2~---------------------------|
|------------------------------------------------------------------|
Watch out for the second 2, it's played at an odd time

Verse 1:39 to 2:13
|------------------------------------------------------------------|
|------------------------------------------------------------------|
|--4-4-4-4---4-4-4-4---4-4-2-2-------------------------------------|
|------------------------------------------------------------------|


|------------------------------------------------------------------|
|------------------------------------------------------------------|
|--4-4-4-4---4-4-4-4---4-4-2-2-0-0-0-0---0-0-0-0---0-0-0-0---------|
|------------------------------------------------------------------|

[ Tab from: http://www.guitartabs.cc/tabs/s/switchfoot/dare_you_to_move_btab.html ]
|------------------------------------------------------------------|
|------------------------------------------------------------------|
|------------------------------------------------------------------|
|--2-2-2-2---2-2-2-2---2-2-4-4-5-5-5-5---5-5-5-5---5-5-5-5---------|


|------------------------------------------------------------------|
|------------------------------------------------------------------|
|--4-4-4-4---4-4-4-4---4-4-2-2-0-0-0-0---0-0-0-0---0-0-0-0---------|
|------------------------------------------------------------------|


|------------------------------------------------------------------|
|------------------------------------------------------------------|
|------------------------------------------------------------------|
|--2-2-2-2---2-2-2-2---2-2-4-4-5-5-5-5---5-5-5-5---5-5-7-7---------|


Back to Chorus 2:13 to 2:40


Interlude 2:40 to 3:09
|------------------------------------------------------------------|
|------------------------------------------------------------------|
|--7>-7>--------7>-7>--------7>-7>---------------------------------|
|--------5>-5>--------5>-5>--------5>-5>--2~-----------------------|

Chorus2 3:22 to 4:07
|------------------------------------------------------------------|
|------------------------------------------------------------------|
|--7>-7>--2>-2>--0>-0>-0>-0-0-0-0--2-2-2-2--7>-7>--2>-2>--0>-0>----|
|------------------------------------------------------------------|


|------------------------------------------------------------------|
|------------------------------------------------------------------|
|--4>-4>-2-2-2-2-7~------------------------------------------------|
|------------------------------------------------------------------|
Comments