Switchfoot - Company Car Chords & Tabs

 

Company Car Chords & Tabs

Switchfoot Chords & Tabs

Version: 1 Type: Bass Tab 0 ratings
1 star 2 stars 3 stars 4 stars 5 stars
comments

Company Car Bass Tab

Band- Switchfoot
Song- Company Car

G |-------------------------------------|
D |-------------------------------------|   2X
A |-7-7--77-----------------------------|
E |---------5-5--55-9-9--99-7-7--77-----|

Verse
G |--------------------------------------------------------------------|
D |--------------------------------------------------------------------|   2X
A |-7-7--77------------------------------------------------------------|
E |---------5-5--55-9-9--99-7-7--77-5-5--55-0-0--00-5-5--55-7-7-77-----|

Pre-Chorus
G |--------------------------------------------------------------------|
D |-------------------------------------6------------------------------|
A |-4-----------------------2---------6---4-2---2-2-2-2-2-2------------|
E |---------5-------2---------------4---------4------------------------|
[ Tab from: http://www.guitartabs.cc/tabs/s/switchfoot/company_car_btab.html ]
Chorus
G |--------------------------------------------------|
D |--------------------------------------------------|
A |-7-7-7-------------------7-7-7-------------3-3-3--|
E |-------7-7-7-8-3-4-5-----------4-4-4-5-5-5--------|

G |--------------------------------------------------|
D |--------------------------------------------------|
A |-7-7-7-------------------7-7-7--------------------|
E |-------7-7-7-9-9-9-5-5-5-------2-2-2-5-5-5-7------|

Verse
Pre-Chorus
Chorus

Stick
G |--------------------------------------------------------|
D |--------------------------------------------------------|
A |--------------------------------------------------------|
E |-~9----~8----~7----~6-----5-----0-----5-----9-----7-----|

Verse
Pre-Chorus
Chorus

After the chorus, play the final "I've got the Company Car" two more
times, then end on E
G |------------------------------------------------------------------|
D |------------------------------------------------------------------|
A |-7-7-7-------------------7-7-7------------------------------------|
E |-------2-2-2-5-5-5-7-7-7-------2-2-2-5-5-5-7--7--7---0------------|
Comments