Switchfoot - Chem6a Chords & Tabs

 

Chem6a Chords & Tabs

Switchfoot Chords & Tabs

Version: 2 Type: Tab 0 ratings
1 star 2 stars 3 stars 4 stars 5 stars
comments

Chem6a Tab

  Main Riff

e----------------------------------------------|
B----------------------------------------------|
G------4p0--------4b------3b--------2h4p2p0----|
D------------------------------0-0-------------|
A------------2-2------3-3----------------------|
E--3-3-----------------------------------------|

The second riff is just a variation, not much difference

e-------------------------------------|
B-------------------------------------|
G------4p0-------4b------3b-----------|
D----------------------------0--------|
A-----------22-2-----3-3--------10/---|
E--3-3--------------------------10/---|

After repeating this a couple of times, it goes to

e----------------------------------------|
B----------------------------------------|
G------4-0-------4b-----3b-----2-2-2-2-2-|
D---------------------------0--2-2-2-2-2-|
A-----------22-2----3-3--------0-0-0-0-0-|
E--3-3-----------------------------------|

Then comes the chorus, you'll have to figure out the rhythm, its not that hard.
                                 1st Ending
e------------------------------  -----      -------------|
B------------------------------  -----      -------------|
G--------------------5-5-------  --5--      -------------|
D--2-2-555--2-2-777--5-5--5-5--  --5-5      --3-3--3-3---|
A--2-2-555--2-2-777--3-3--5-5--  --3-5      --3-3--3-3---|
E--0-0-333--0-0-555-------3-3--  ----3      --1-1--1-1---|

First Solo
[ Tab from: http://www.guitartabs.cc/tabs/s/switchfoot/chem6a_tab_ver_2.html ]
e---------------------------------------------------------------------|
B---------------------------------------------------------------------|
G---/7~~~-7b-4--------------/7~--7-7-777~/12~~--12-14-15-12-12h14-12--|
D--------------5-7-7b-5-7-5-------------------------------------------|
A---------------------------------------------------------------------|
E---------------------------------------------------------------------|

e------------                    e-----------------|
B------------  :  Repeat this    B-----------------|
G--5-5h7-77--     6 times then   G-----------------|
D------------     play this      D--5-7-7b-5-7-5~--|
A------------  :                 A-----------------|
E------------                    E-----------------|

After that there is a break where it is just bass then play the main riffs a number of times

then do the chorus (the only difference in the second chorus is that you repeat the 
ending instead of playing it just once) and then we get to solo number 2

End Riff 1
e------------------------------------------------------|
B------------------------------------------------------|
G--/12-14-12-14h15p14p12-14-12--12-12-1212-11-9-11-12--|
D------------------------------------------------------|
A------------------------------------------------------|
E------------------------------------------------------|

End Riff 2
e-----------------------------------------------|
B-----------------------------------------------|
G--12-14-12-14h15p14p12-14-12--12-12-1212-11~---|
D-----------------------------------------------|
A-----------------------------------------------|
E-----------------------------------------------|

After doing the second end riff, you just play the first end riff two more times and end 
song by letting the 12 ring out

I hope that this tab comes in handy, if you have any questions comments or corrections, 
can email me at foist01@hotmail.com   God Bless
Comments