Switchfoot - Beautiful Letdown Chords & Tabs

 

Beautiful Letdown Chords & Tabs

Switchfoot Chords & Tabs

Version: 1 Type: Bass Tab 0 ratings
1 star 2 stars 3 stars 4 stars 5 stars
comments

Beautiful Letdown Bass Tab

Band - Switchfoot
Song - The Beautiful Letdown

Tuning: Standard

Intro:
G|-------------------------|
D|-------------------------|
A|------0----5-----7-------|
E|-------------------------|

G|-------------------------|--------|
D|-------------------------|--------|
A|---------5-5-7-----------|--9--7--| x4
E|--0----5-------0--8/10---|--------|

Verse:
G|-------------------------|--------|
D|-------------------------|--------|
A|---------5-5-7-----------|--9--7--| x4
E|--0----5-------0--8/10---|--------|

G|-------------------------|
D|-------------------------|
A|-----4------6/7----4-----|
E|--4---4--3------4----4-2-|
[ Tab from: http://www.guitartabs.cc/tabs/s/switchfoot/beautiful_letdown_btab.html ]
Chorus:
G|-------------------|-------------------|--------|
D|-------------------|-------------------|--------|
A|-----0-------------|-------0-----7-----|--0-----| x2
E|-0-0---7--10-10-10-|-10--9---0-0---0-0-|----10--|

Verse:
G|-------------------|-------------------|
D|-------------------|-------------------|
A|---------5-5---7---|-----------9--7----| x4
E|---0---5-----------|--0--8/10----------|

Chorus:
G|-------------------|-------------------|--------|
D|-------------------|-------------------|--------|
A|-----0-------------|-------0-----7-----|--0-----| x6
E|-0-0---7--10-10-10-|-10--9---0-0---0-0-|----10--|

Verse:
G|-------------------|-------------------|
D|-------------------|-------------------|
A|-------5-5---7-----|----------9---7----| x4
E|--0--5-------------|--0--8/10----------|
Comments