Switchfoot - Adding To The Noise Chords & Tabs

 

Adding To The Noise Chords & Tabs

Switchfoot Chords & Tabs

Version: 3 Type: Tab 0 ratings
1 star 2 stars 3 stars 4 stars 5 stars
comments

Adding To The Noise Tab

This is my first tab, but i spent a couple hours figuring it out.im 12 and ive been
playing guitar for a year.i figured it out by watching the Live in San Diego DVD.

[standard tuning]

intro

E|------------------------------------------------------------|
B|------------------------------------------------------------|
G|------------------------------------------------------------|
D|--------0--0-----------------xx-----------------------------| X2
A|----3----------0--0--222222--xx-----------------------------|
E|-----------------------------xx-----------------------------|
    
Then Both Guitars Come in,guitar one playing this for the chorus/intro

E|-----2--2---------------------------------------------------|
B|--1--3--3---2-2---------------------------------------------|
G|--x--2--2---2-2--444444-------------------------------------|
D|--2--0--0---2-2--444444--xx---------------------------------| 
A|--3---------0-0--222222--xx---------------------------------|
E|--3----------------------xx---------------------------------|
 
  then guitar 2 plays this
[ Tab from: http://www.guitartabs.cc/tabs/s/switchfoot/adding_to_the_noise_tab_ver_3.html ]
E|------------------------------------------------------------|
B|------------------------------------------------------------|
G|---5-7-7----------------------------------------------------|
D|---5-7-7-7-7--999999-xxx------------------------------------| 
A|---3-5-5-7-7--999999-xxx------------------------------------|
E|---------5-5--777777-xxx------------------------------------|
 

the verse is practically a variation of the chorus palm muted

bridge
          "sterio radio.." guitars one and two
E|------------------------------------------------------------|
B|------------------------------------------------------------|
G|------------------------------------------------------------|
D|---77777--5555555------7777---999999------------------------| 
A|---77777--5555555-x2---7777---999999------------------------|
E|---55555--3333333------5555---777777------------------------|
 
then this again

E|------------------------------------------------------------|
B|------------------------------------------------------------|
G|------------------------------------------------------------|
D|--------0--0-----------------xx-----------------------------| X2
A|----3----------0--0--222222--xx-----------------------------|
E|-----------------------------xx-----------------------------|
 

outro

E|----------------------------------------------------------------------|
B|----------------------------------------------------------------------|
G|-------------------77777-----5555555--------------------55555--7>>----|
D|--999999--777777---77777-----5555555-x2--77777--999999--55555--7>>----| 
A|--999999--777777---55555-----3333333-----77777--999999--33333--5>>----|
E|--777777--555555-------------------------55555--777777----------------|
 
 >=let ring


Thank You And God Bless!
Comments