Switch - Meant To Live Chords & Tabs

 

Meant To Live Chords & Tabs

Switch Chords & Tabs

Version: 1 Type: Tab 3 ratings
1 star 2 stars 3 stars 4 stars 5 stars
comments

Meant To Live Tab

   
e------------------------------------
b------------------------------------
g------------------------------------     repeat2x then do this
d-9-9-9-----7-7-7--------------------
a-9-9-9-9b--7-7-7-9b-7-7-7-9b-5555-7-
e-7-7-7-----5-5-5----7-7-7----3333-5-


e-------------------------------------
b-------------------------------------
g-------------------------------------
d-9-9-9-----------------------222-----           then wait a couple of seconds and do
a-7-7-7-9b-7-5-0-9b-7-5-0 2b--222-44-5             this
e-7-7-7---------------------------22-3

[ Tab from: http://www.guitartabs.cc/tabs/s/switch/meant_to_live_tab.html ]
e---------------------------------
b---------------------------------
g---------------------------------
d---------------------------------               the next thing is the chorus
a---------------------------------
e-4-0-2-0-4-0-454-4-0-2-0-4-0-45s7



e--------------------------------------------------
b--------------------------------------------------
g--------------------------------------------------       B is bend
d--------------------------------------------------       s is slide
a-555-777-999-9-11-777-9b-555-9-777-9b-777-9-777-9b
e-333-555-777-7-9--777----333-7-777----555-7-777---


there you go, hope you enjoy!
Comments