Swirl 360 - Hey Now Now Chords & Tabs

 

Hey Now Now Chords & Tabs

Swirl 360 Chords & Tabs

Version: 1 Type: Tab 0 ratings
1 star 2 stars 3 stars 4 stars 5 stars
comments

Hey Now Now Tab

   
Artist: Swirl 360
Title: Hey Now Now
From: I Know What You Did Last Summer (or I Still Know...I can't remember)
Transcribed By: maestro
Email: soccerstoolie_lindsayw@hotmail.com

intro (x2)
e|----------------------|
B|--5-5--5-6-6-6h8p6-5--|
G|------5---------------|
D|----------------------|
A|----------------------|
E|----------------------|

verse (x4)
e|------------------|
B|--5-6--5-8p6-5----|
G|---------------5--|
D|------------------|
A|------------------|
E|------------------|
[ Tab from: http://www.guitartabs.cc/tabs/s/swirl_360/hey_now_now_tab.html ]
prechorus 
e|--------------------------------------------------------|
B|--------------------------------------------------------|
G|--------------------------------------------------------|
D|--6-----3-----6-----3-----------------------------------|
A|--6(x4)-3(x4)-6(x4)-3(x2)-8--3-6-8(x2)--12--7-10-12b14--|
E|--4-----1-----4-----1-----------------------------------|

chorus (x4)
e|--------------------------|
B|--------------------------|
G|--8-----------6-----------|
D|--8(x8)-8-----6(x8)-6-----|
A|--6-----8(x8)-4-----6(x8)-|
E|--------6-----------4-----|

-repeat intro(x2)
-repeat verse(x4)
-repeat prechorus
-repeat chorus(x4)

bridge
e|---------------------------|
B|---------------------------|
G|---------------------------|
D|--3-----6-----1-----3------|
A|--3(x8)-6(x8)-1(x8)-3(x8)--|
E|--1-----4-----------1------|

-repeat intro(x2)
-repeat verse(x4)
-repeat prechorus
-repeat chorus(x12)

end on
e|---x|
B|---x|
G|-8-x|
D|-8-x|
A|-6-x|
E|---x|

That's it that's all.  
Any questions, comments, whatever, email me at: soccerstoolie_lindsayw@hotmail.com
Comments