Swinging Blue Jeans - Cadillac Chords & Tabs

 

Cadillac Chords & Tabs

Swinging Blue Jeans Chords & Tabs

Version: 2 Type: Bass Tab 0 ratings
1 star 2 stars 3 stars 4 stars 5 stars
comments

Cadillac Bass Tab

   
             My Bass tab

Cadillac  as played by The Swinging Blue Jeans
[ Tab from: http://www.guitartabs.cc/tabs/s/swinging_blue_jeans/cadillac_btab_ver_2.html ]
TablEdited by Jan Bjorklund
Tuning : E A D G 	Time Signature: 4/4
  Gm
  |       |       |       |          |       |       |       |         
||--------------------------------||----------------------------------|
|*--------------------------------*|----------------------------------|
||--------------------------------||---------1-------1---1---3---1----|
||3---3---3---3---3---3---3---3---||-3---3-------3--------------------|
                                     C7
  |       |       |       |          |       |       |       |         
|----------------------------------|----------------------------------|
|----------------------------------|----------------------------------|
|---------1-------1---1---3---1----|-3---3---3---3---3---3---3---3----|
|-3---3-------3--------------------|----------------------------------|
                                     Gm
  |       |       |       |          |       |       |       |         
|----------------------------------|----------------------------------|
|----------------------------------|----------------------------------|
|-3---3---3---3---3---3---3---3----|---------1-------1---1---3---1----|
|----------------------------------|-3---3-------3--------------------|
                                     D7
  |       |       |       |          |       |       |       |         
|----------------------------------|----------------------------------|
|----------------------------------|----------------------------------|
|---------1-------1---1---3---1----|-5---5---5---5---5---5---5---5----|
|-3---3-------3--------------------|----------------------------------|
  C7                                 Gm
  |       |       |       |          |       |       |       |         
|----------------------------------|----------------------------------|
|----------------------------------|----------------------------------|
|-3---3---3---3---3---3---3---3----|---------1-------1---1---3---1----|
|----------------------------------|-3---3-------3--------------------|
  D7                                 Gm
  |       |       |       |        >3|       |       |       |         
|---------------------------------|||--------------------------------||
|---------------------------------*|*--------------------------------*|
|-----5---5---5---5---5---5---5---|||--------1-------1---1---3---1---||
|---------------------------------|||3---3-------3-------------------||
  Cm                                 Gm
>3|       |       |       |        >3|       |       |       |         
||--------------------------------|||--------------------------------||
|*--------------------------------*|*--------------------------------*|
||3---3---1---3---3---3---1---3---|||--------1-------1---1---3---1---||
||--------------------------------|||3---3-------3-------------------||
  D7                                 Cm
>3|       |       |       |          |       |       |       |         
|----------------------------------|----------------------------------|
|----------------------------------|----------------------------------|
|-5---5---3---5---5---5---3---5----|-3---3---1---3---3---3---1---3----|
|----------------------------------|----------------------------------|
  Gm                                 D7                                 (Gm)
  |       |       |       |          |       |       |       |         
|----------------------------------|----------------------------------|
|----------------------------------|----------------------------------|
|---------1-------1---1---3---1----|-----5---5---5---5---5---5---5----|
|-3---3-------3--------------------|----------------------------------|


Created with TablEdit http://www.tabledit.com/
Comments