Swingin Utters - Five Lessons Learned Chords & Tabs

 

Five Lessons Learned Chords & Tabs

Swingin Utters Chords & Tabs

Version: 2 Type: Tab 0 ratings
1 star 2 stars 3 stars 4 stars 5 stars
comments

Five Lessons Learned Tab

Band:  SwinginŽ Utters
Title: Five Lessons Learned

Tabber: |---> Chris W. <---|
Contact: LCPD@gmx.at
Date: 08/16/05

---------------------------------------------------

Hey guys I hope youŽll like this tab!

If you wanna say something to me about the tab or
anything else: MAIL me @ LCPD@gmx.at

Thanks @ Dale Weekes for his intro tab it really insired
me to do this tab!

HAVE FUN @ playing this song! ;)

[ Tab from: http://www.guitartabs.cc/tabs/s/swingin_utters/five_lessons_learned_tab_ver_2.html ]
 |Intro:|
e|------------------------------------|
b|------------------------------------|
g|--99-xx-99-xx-99-xx-99-xx-99-xx-9---|
d|--99-xx-99-xx-99-xx-99-xx-99-xx-9---|
a|--77-xx-77-xx-77-xx-77-xx-77-xx-7---|
e|------------------------------------|
 
 |2nd intro riff:|
e|----------------------------------|
b|----------------------------------|
g|--9------7------5------444--------|
d|--9--99--7--77--5--33--444--------|
a|--7--99--5--77--3--33--222--------|
e|-----77-----55-----55-------------|

e|------------------------------------------------|
b|------------------------------------------------|
g|------------------------------------------------|
d|--------------------------------7-6-5--5-6-7----|
a|--------7--------7--------7-6-5-----------------|
e|--7-6-5----7-6-5----7-6-5-----------------------|

 |Verses:| (2nd guitare playes 2nd intro riff!!) 
e|----------------------------------|
b|----------------------------------|
g|----------------------------------|
d|----------------------------------|
a|--------7-6-----------------------|
e|--7-6-5---------------------------|
Comments