Sweetnam Skye - Tangled Up In Me Chords & Tabs

 

Tangled Up In Me Chords & Tabs

Sweetnam Skye Chords & Tabs

Version: 3 Type: Tab 0 ratings
1 star 2 stars 3 stars 4 stars 5 stars
comments

Tangled Up In Me Tab

   
-----------------------------------------------------------------

     SKYE SWEETNAM - TANGLED UP IN ME. From NOISE ON THE BASEMENT 
                     album. Released on 21st September 2004.

-----------------------------------------------------------------

     Tabbed by:PJVillanueva







You wanna know more, more, more about me 
I'm the girl who's kicking the coke machine 
I'm the one that's honking at you cuz I left late again

Hey! Hey! Hey! 

Could you see I want you by the way I push you away, Ya! 
Don't judge me tomorrow by the way I'm acting today 
Mix the words up with the actions do it all for your reaction Ya! 
Hey! Hey! 
Get tangled up in me 

You wanna know more, more, more about me 
Gotta know reverse phsychology 
I'm the reason why you can't get to sleep 
I'm the girl you never get just quite what you see 

Hey! Hey! Hey! 

Could you see I want you by the way I push you away, Yeah! 
Don't judge me tomorrow by the way I'm acting today 
Mix the words up with the actions do it all for your reaction Ya! 
Hey! Hey! 
Get tangled up in me 

You think that you know me 
You think that I'm only 
When everything I do is only to get tangled up in you 
You wanna know more, more, more about me 
I'm the girl that's sweeping you off your feet 

Hey! Hey! Hey! 

Could you see I want you by the way I push you away Ya! 
Don't judge me tomorrow by the way I'm acting today 
Mix the words up with the actions do it all for your reaction, Ya!

Hey! Hey! 

Get tangled up in me




  
e|------- ------- ------- -------|------- ------- ------- -------|
B|-------------------------------|-------------------------------|
G|-------------------------------|-------------------------------|
D|-------------------------------|-------------------------------|
A|----------------7---7---7---7--|----------------8---8---8---8--|
E|8---8---8----------------------|5---5---5----------------------|                                     
  C               E               Am              F
e|------- ------- ------- 4------|------- ------- ------- 5------|
B|--------5----------------------|--------1----------------------|
G|----0---------------4-------4-\|--------------------5-------5-\|
D|----------------2--------------|----2-----------3--------------|
A|3------------------------------|0------------------------------|
E|-------------------------------|-------------------------------|
                                                      You wanna know 




e|------- ------- ------- -------|------- ------- ------- -------|
B|-------------------------------|-------------------------------|
G|-------------------------------|-------------------------------|
D|-------------------------------|-------------------------------|
A|----------------7---7---7---7--|----------------8---8---8---8--|
E|8---8---8----------------------|5---5---5----------------------|       
  C               E               Am              F
e|------- ------- ------- 4------|------- ------- ------- 5------|
B|--------5----------------------|--------1----------------------|
G|----0---------------4-------4-\|--------------------5-------5-\|
D|----------------2--------------|----2-----------3--------------|
A|3------------------------------|0------------------------------|
E|-------------------------------|-------------------------------|
  more,   more,   more about  me                  I'm the girl who's 




e|------- ------- ------- -------|------- ------- ------- -------|
B|-------------------------------|-------------------------------|
G|-------------------------------|-------------------------------|
D|-------------------------------|-------------------------------|
A|----------------7---7---7---7--|----------------8---8---8---8--|
E|8---8---8----------------------|5---5---5----------------------|       
  C               E               Am              F
e|------- ------- ------- 4------|------- ------- ------- 5------|
B|--------5----------------------|--------1----------------------|
G|----0---------------4-------4-\|--------------------5-------5-\|
D|----------------2--------------|----2-----------3--------------|
A|3------------------------------|0------------------------------|
E|-------------------------------|-------------------------------|
  kicking the     coke    machine                 I'm the one that's 




e|------- ------- ------- -------|------- ------- ------- -------|
B|-------------------------------|-------------------------------|
G|-------------------------------|-------------------------------|
D|-------------------------------|----------------0---0---0---0--|
A|----------------7---7---7---7--|-------------------------------|
E|8---8---8----------------------|5---5---5----------------------|       
  C               E               Am              D5
e|------- ------- ------- 4------|------- ------- ------- -------|
B|--------5----------------------|--------1---------------3------|
G|----0---------------4----------|--------------------2----------|
D|----------------2--------------|----2-----------0--------------|
A|3------------------------------|0------------------------------|
E|-------------------------------|-------------------------------|
  honking at  you     cuz I   left   late again



                  F5
e|------- -------|------- ------- ------- -------|
B|---------------|-------------------------------|
G|---------------|-------------------------------|
D|---------------|3---3-----------3---3----------|
A|0---0---0---2--|3---3-----------3---3----------|
E|---------------|1---1-----------1---1----------|
                  F
e|------- -------|1---1-- ------- 1---1-- -------|
B|3----3--3---3--|1---1-----------1---1----------|
G|2----2--2---2--|2---2-----------2---2----------|
D|0----0--0---2--|3---3-----------3---3----------|
A|---------------|3---3-----------3---3----------|
E|---------------|1---1-----------1---1----------|
                          Hey!            Hey! 



  C5              G5              A5              F5
e|------- ------- ------- -------|------- ------- ------- -------|
B|-------------------------------|-------------------------------|
G|5---5---5---5------------------|-------------------------------|
D|5---5---5---5---5---5---5---5--|7---7---7---7---3---3---3---3--|
A|3---3---3---3---5---5---5---5--|7---7---7---7---3---3---3---3--|
E|----------------3---3---3---3--|5---5---5---5---1---1---1---1--|
  C               Gsus4           Am7             Fadd9
e|3---3-- 3---3-- 3---3-- 3---3--|3---3-- 3---3-- 3---3-- 3---3-3|
B|1---1---1---1---1---1---1---1--|1---1---1---1---1---1---1---1-1|
G|0---0---0---0---0---0---0---0--|2---2---2---2---2---2---2---2-2|
D|2---2---2---2---0---0---0---0--|2---2---2---2---3---3---3---3-3|
A|3---3---3---3---2---2---2---2--|0---0---0---0---0---0---0---0-0|
E|----------------3---3---3---3--|-------------------------------|
          Hey!              Could see I want 
                              you         you by 
                                              the way I push you  
                                                               away,
 
e|------- ------- ------- -------|------- ------- ------- -------|
B|-------------------------------|-------------------------------|
G|5---5---5---5------------------|-------------------------------|
D|5---5---5---5---5---5---5---5--|7---7---7---7---3---3---3---3--|
A|3---3---3---3---5---5---5---5--|7---7---7---7---3---3---3---3--|
E|----------------3---3---3---3--|5---5---5---5---1---1---1---1--|
  
e|3---3-- 3---3-- 3---3-- 3---3--|3---3-- 3---3-- 3---3-- 3---3--|
B|1---1---1---1---1---1---1---1--|1---1---1---1---1---1---1---1--|
G|0---0---0---0---0---0---0---0--|2---2---2---2---2---2---2---2--|
D|2---2---2---2---0---0---0---0--|2---2---2---2---3---3---3---3--|
A|3---3---3---3---2---2---2---2--|0---0---0---0---0---0---0---0--|
E|----------------3---3---3---3--|-------------------------------|
          Yeah!           Don't   me tomorrow 
                              judge        by the way I'm 
                                                        acting today 

  D5                              F5
e|------- ------- ------- -------|------- ------- ------- -------|
B|-------------------------------|-------------------------------|
G|7---7---7---7---7---7---7---7--|-------------------------------|
D|7---7---7---7---7---7---7---7--|3---3---3---3---3---3---3---3--|
A|5---5---5---5---5---5---5---5--|3---3---3---3---3---3---3---3--|
E|-------------------------------|1---1---1---1---1---1---1---1--|
  D7sus4                          Fadd9    
e|3---3-- 3---3-- 3---3-- 3---3--|3---3-- 3---3-- 3---3-- 3---3--|
B|1---1---1---1---1---1---1---1--|1---1---1---1---1---1---1---1--|
G|2---2---2---2---2---2---2---2--|2---2---2---2---2---2---2---2--|
D|0---0---0---0---0---0---0---0--|3---3---3---3---3---3---3---3--|
A|-------------------------------|0---0---0---0---0---0---0---0--|
E|-------------------------------|-------------------------------|
  Mix the words     the actions do it all  for your reaction Yeah!    
             up with


  G5                              F5
e|------- ------- ------- -------|------- ------- ------- -------|
B|-------------------------------|-------------------------------|
G|-------------------------------|-------------------------------|
D|5---5---5---5---5---5---5---5--|3---3-----------3---3----------|
A|5---5---5---5---5---5---5---5--|3---3-----------3---3----------|
E|3---3---3---3---3---3---3---3--|1---1-----------1---1----------|
  Gsus4                           Fadd9                                       
e|3---3-- 3---3-- 3---3-- 3---0--|3---3-- ------- 3---3-- -------|
B|1---1---1---1---1---1---1---1--|1---1-----------1---1----------|
G|0---0---0---0---0---0---0---0--|2---2-----------2---2----------|
D|0---0---0---0---0---0---0---0--|3---3-----------3---3----------|
A|2---2---2---2---2---2---2---2--|0---0-----------0---0----------|
E|3---3---3---3---3---3---3---3--|-------------------------------|
                                          Hey!            Hey!




e|------- ------- ------- -------|
B|-------------------------------|
G|-------------------------------|
D|3---3--------------------------|
A|3---3--------------------------|
E|1---1--------------------------|
 
e|3---3-- ------- ------- -------|
B|1---1--------------------------|
G|2---2--------------------------|
D|3---3--------------------------|
A|0---0--------------------------|
E|-------------------------------|
              Get tangled up in me 
      


  C5              E5              A5              F5
e|------- ------- ------- -------|------- ------- ------- -------|
B|-------------------------------|-------------------------------|
G|-------------------------------|-------------------------------|
D|5---5---5----------------------|-------------------------------|
A|3---3---3-------2---2---2------|7---7---7---7-\-3---3---3---3--|
E|----------------0---0---0------|5---5---5---5-\-1---1---1---1--|
              C           Am                        Fsus4 F
e|------- ------- ------- 5------|------- ------- ----6-- 5------|
B|------------5-----------5---5--|--------5-----------6---6------|
G|------------5-----------5------|------------5-------5---5------|
D|------------5-----------7------|----7--------------------------|
A|------------3------------------|-------------------------------|
E|-------------------------------|-------------------------------|

e|------- ------- ------- -------|------- ------- ------- -------|
B|-------------------------------|-------------------------------|
G|9-------9-------7----9---\--5--\-------------------------------|
D|-------------------------------|-------------------------------|
A|7-------7-------5----7---\--3--\-------------------------------|
E|-------------------------------|-------------------------------|
                                                      You wanna know 



  C               E7              Am                      F   
e12------12------10------10------|8------ 8------ ------- 8--10--|
B13------13-------9-------9---9--10------10--------------10------|
G12------12--12---9-------9------|9-------9--------------10------|
D|-------------------------------|-------------------------------|
A|-------------------------------|-------------------------------|
E|-------------------------------|-------------------------------|
  C5              E5              A5          E5  F5
e|------- ------- ------- -------|------- ------- ------- -------|
B|-------------------------------|-------------------------------|
G|-------------------------------|-------------------------------|
D|5---5--------------------------|-------------------------------|
A|3---3-----------2---2----------|7---7---7---2---3---3---3---3--|
E|----------------0---0----------|5---5---5---0---1---1---1---1--|
  C               E               Am              F
e|------- ------- ------- 4------|------- ------- ------- 5------|
B|--------5----------------------|--------1----------------------|
G|----0---------------4-------4-\|--------------------5-------5-\|
D|----------------2--------------|----2-----------3--------------|
A|3------------------------------|0------------------------------|
E|-------------------------------|-------------------------------|
  more,   more,   more about  me                               Gotta 




e12------12------10------10------|8------ ------- 8------ -------|
B13------13-------9-------9---9--10-----------8--10--------------|
G12------12--12---9-------9------|9--------------10--------------|
D|-------------------------------|-------------------------------|
A|-------------------------------|-------------------------------|
E|-------------------------------|-------------------------------|

e|------- ------- ------- -------|------- ------- ------- -------|
B|-------------------------------|-------------------------------|
G|-------------------------------|-------------------------------|
D|5---5--------------------------|-------------------------------|
A|3---3-----------2---2----------|7---7---7---2---3---3---3---3--|
E|----------------0---0----------|5---5---5---0---1---1---1---1--|

e|------- ------- ------- 4------|------- ------- ------- 5------|
B|--------5----------------------|--------1----------------------|
G|----0---------------4----------|--------------------5-------5-\|
D|----------------2--------------|----2-----------3--------------|
A|3------------------------------|0------------------------------|
E|-------------------------------|-------------------------------|
          know reverse    phsychology             I'm the 
                                                       reason why



e12------12------10------10------|8------ 8------ 8------ 8--10--|
B13------13-------9-------9---9--10------10------10------10------|
G12------12--12---9-------9------|9-------9-------9------10------|
D|-------------------------------|-------------------------------|
A|-------------------------------|-------------------------------|
E|-------------------------------|-------------------------------|

e|------- ------- ------- -------|------- ------- ------- -------|
B|-------------------------------|-------------------------------|
G|-------------------------------|-------------------------------|
D|5---5-------5------------------|-------------------------------|
A|3---3-------3---2---2-------2--|7---7---7---7-\-3---3---3---3--|
E|----------------0---0-------0--|5---5---5---5-\-1---1---1---1--|

e|------- ------- ------- 4------|------- ------- ------- 5------|
B|--------5----------------------|--------1----------------------|
G|----0---------------4----------|--------------------5-------5-\|
D|----------------2--------------|----2-----------3--------------|
A|3------------------------------|0------------------------------|
E|-------------------------------|-------------------------------|
      you can't   get     to  sleep               I'm the girl you 



                                                  D5
e12------12------10------10------|8------ 8------10------10------|
B13------13-------9-------9---9--10------10------10------10------|
G12------12--12---9-------9------|9-------9-------7-------7------|
D|-------------------------------|-------------------------------|
A|-------------------------------|-------------------------------|
E|-------------------------------|-------------------------------|
                                                  D5
e|------- ------- ------- -------|------- ------- ------- -------|
B|-------------------------------|-------------------------------|
G|-------------------------------|-------------------------------|
D|5---5-------5------------------|----------------7---7---7---7--|
A|3---3-------3---2---2----------|7---7---7---7---5---5---5---5--|
E|----------------0---0----------|5---5---5---5------------------|
                                                  D5
e|------- ------- ------- 4------|------- ------- ------- -------|
B|--------5----------------------|--------1-------3--------------|
G|----0---------------4-------4-\|----------------2--------------|
D|----------------2--------------|----2-----------0--------------|
A|3------------------------------|0------------------------------|
E|-------------------------------|-------------------------------|
  never       get         just quite what you see 



[ Tab from: http://www.guitartabs.cc/tabs/s/sweetnam_skye/tangled_up_in_me_tab_ver_3.html ]
e10------10--12--|------- ------- ------- -------|
B10------10--10--|-------------------------------|
G|7--------------|-------------------------------|
D|---------------|-------------------------------|
A|---------------|-------------------------------|
E|---------------|-------------------------------|
                  F5
e|------- -------|------- ------- ------- -------|
B|---------------|-------------------------------|
G|---------------|-------------------------------|
D|7---7---7---2--|3---3-----------3---3----------|
A|5---5---5---2--|3---3-----------3---3----------|
E|------------0--|1---1-----------1---1----------|
                  F
e|------- -------|1---1-- ------- 1---1-- -------|
B|3-------3---3--|1---1-----------1---1----------|
G|2-------2---2--|2---2-----------2---2----------|
D|0-------0---2--|3---3-----------3---3----------|
A|---------------|3---3-----------3---3----------|
E|---------------|1---1-----------1---1----------|  
                          Hey!            Hey! 



  C5              G5              A5              F5
e|------- ------- ------- -------|------- ------- ------- -------|
B|-------------------------------|-------------------------------|
G|5---5---5---5------------------|-------------------------------|
D|5---5---5---5---5---5---5---5--|7---7---7---7---3---3---3---3--|
A|3---3---3---3---5---5---5---5--|7---7---7---7---3---3---3---3--|
E|----------------3---3---3---3--|5---5---5---5---1---1---1---1--|
  C               Gsus4           Am7             Fadd9
e|3---3-- 3---3-- 3---3-- 3---3--|3---3-- 3---3-- 3---3-- 3---3-3|
B|1---1---1---1---1---1---1---1--|1---1---1---1---1---1---1---1-1|
G|0---0---0---0---0---0---0---0--|2---2---2---2---2---2---2---2-2|
D|2---2---2---2---0---0---0---0--|2---2---2---2---3---3---3---3-3|
A|3---3---3---3---2---2---2---2--|0---0---0---0---0---0---0---0-0|
E|----------------3---3---3---3--|-------------------------------|
          Hey!              Could see I want 
                              you         you by 
                                              the way I push you  
                                                               away,

e|------- ------- ------- -------|------- ------- ------- -------|
B|-------------------------------|-------------------------------|
G|5---5---5---5------------------|-------------------------------|
D|5---5---5---5---5---5---5---5--|7---7---7---7---3---3---3---3--|
A|3---3---3---3---5---5---5---5--|7---7---7---7---3---3---3---3--|
E|----------------3---3---3---3--|5---5---5---5---1---1---1---1--|
  
e|3---3-- 3---3-- 3---3-- 3---3--|3---3-- 3---3-- 3---3-- 3---3--|
B|1---1---1---1---1---1---1---1--|1---1---1---1---1---1---1---1--|
G|0---0---0---0---0---0---0---0--|2---2---2---2---2---2---2---2--|
D|2---2---2---2---0---0---0---0--|2---2---2---2---3---3---3---3--|
A|3---3---3---3---2---2---2---2--|0---0---0---0---0---0---0---0--|
E|----------------3---3---3---3--|-------------------------------|
          Yeah!           Don't   me tomorrow 
                              judge        by the way I'm 
                                                        acting today 

  D5                              F5
e|------- ------- ------- -------|------- ------- ------- -------|
B|-------------------------------|-------------------------------|
G|7---7---7---7---7---7---7---7--|-------------------------------|
D|7---7---7---7---7---7---7---7--|3---3---3---3---3---3---3---3--|
A|5---5---5---5---5---5---5---5--|3---3---3---3---3---3---3---3--|
E|-------------------------------|1---1---1---1---1---1---1---1--|
  D7sus4                          Fadd9    
e|3---3-- 3---3-- 3---3-- 3---3--|3---3-- 3---3-- 3---3-- 3---3--|
B|1---1---1---1---1---1---1---1--|1---1---1---1---1---1---1---1--|
G|2---2---2---2---2---2---2---2--|2---2---2---2---2---2---2---2--|
D|0---0---0---0---0---0---0---0--|3---3---3---3---3---3---3---3--|
A|-------------------------------|0---0---0---0---0---0---0---0--|
E|-------------------------------|-------------------------------|
  Mix the words     the actions do it all  for your reaction Yeah!    
             up with


  G5                              F5
e|------- ------- ------- -------|------- ------- ------- -------|
B|-------------------------------|-------------------------------|
G|-------------------------------|-------------------------------|
D|5---5---5---5---5---5---5---5--|3---3-----------3---3----------|
A|5---5---5---5---5---5---5---5--|3---3-----------3---3----------|
E|3---3---3---3---3---3---3---3--|1---1-----------1---1----------|
  Gsus4                           Fadd9                                        
e|3---3-- 3---3-- 3---3-- 3---0--|3---3-- ------- 3---3-- -------|
B|1---1---1---1---1---1---1---1--|1---1-----------1---1----------|
G|0---0---0---0---0---0---0---0--|2---2-----------2---2----------|
D|0---0---0---0---0---0---0---0--|3---3-----------3---3----------|
A|2---2---2---2---2---2---2---2--|0---0-----------0---0----------|
E|3---3---3---3---3---3---3---3--|-------------------------------|
                                          Hey!            Hey!




e|------- ------- ------- -------|
B|-------------------------------|
G|-------------------------------|
D|3---3--------------------------|
A|3---3--------------------------|
E|1---1--------------------------|
 
e|3---3-- ------- ------- -------|
B|1---1--------------------------|
G|2---2--------------------------|
D|3---3--------------------------|
A|0---0--------------------------|
E|-------------------------------|
              Get tangled up in me 
      


  C5              E5              A5              F5
e|------- ------- ------- -------|------- ------- ------- -------|
B|-------------------------------|-------------------------------|
G|-------------------------------|-------------------------------|
D|5---5---5----------------------|-------------------------------|
A|3---3---3-------2---2---2------|7---7---7---7-\-3---3---3---3--|
E|----------------0---0---0------|5---5---5---5-\-1---1---1---1--|
              C           Am                        Fsus4 F
e|------- ------- ------- 5------|------- ------- ----6-- 5------|
B|------------5-----------5---5--|--------5-----------6---6------|
G|------------5-----------5------|------------5-------5---5------|
D|------------5-----------7------|----7--------------------------|
A|------------3------------------|-------------------------------|
E|-------------------------------|-------------------------------|

e|------- ------- ------- -------|------- ------- ------- -------|
B|-------------------------------|-------------------------------|
G|9-------9-------7----9---\--5--\---------------12------10------|
D|-------------------------------|-------------------------------|
A|7-------7-------5----7---\--3--\---------------10-------8------|
E|-------------------------------|-------------------------------|





e|------- ------- ------- -------|------- ------- ------- -------|
B|-------------------------------|-------------------------------|
G|7------------------------------|-------------------------------|
D|-------------------------------|-------------------------------|
A|5------------------------------|-------------------------------|
E|-------------------------------|-------------------------------|
  D5                          G5
e|------- ------- ------- -------|------- ------- ------- -------|
B|-------------------------------|-------------------------------|
G|7---7---7-------7---7---7------|-------------------------------|
D|7---7---7-------7---7---7---5--|----5---5-------5---5---5---5--|
A|5---5---5-------5---5---5---5--|----5---5-------5---5---5---5--|
E|----------------------------3--|----3---3-------3---3---3---3--|
  Dm                          G
e|1---1-- 1------ 1---1-- 1---3--|----3-- 3------ 3---3-- 3---3--|
B|3---3---3-------3---3---3---3--|----3---3-------3---3---3---3--|
G|2---2---2-------2---2---2---0--|----0---0-------0---0---0---0--|
D|0---0---0-------0---0---0---0--|----0---0-------0---0---0---0--|
A|----------------------------2--|----2---2-------2---2---2---2--|
E|----------------------------3--|----3---3-------3---3---3---3--|
              You think 
                     that you know    me 



e|------- ------- ------- -------|------- ------- ------- -------|
B|-------------------------------|-------------------------------|
G|7---7---7-------7---7---7------|-------------------------------|
D|7---7---7-------7---7---7---5--|----5---5---5---5---5---5---5--|
A|5---5---5-------5---5---5---5--|----5---5---5---5---5---5---5--|
E|----------------------------3--|----3---3---3---3---3---3---3--|

e|1---1-- 1-----1 1---1-- 1---3--|----3-- 3---3-- 3---3-- 3------|
B|3---3---3-----3-3---3---3---3--|----3---3---3---3---3---3------|
G|2---2---2-----2-2---2---2---0--|----0---0---0---0---0---0------|
D|0---0---0-----0-0---0---0---0--|----0---0---0---0---0---0------|
A|------------------------2---2--|----2---2---2---2---2---2------|
E|------------------------3---3--|----3---3---3---3---3---3------|
              You think 
                     that I'm only 


  A5                              C
e|------- ------- ------- -------|------- ------- ------- -------|
B|-------------------------------|-------------------------------|
G|2---2---2---2---2---2---2---2--|-------------------------------|
D|2---2---2---2---2---2---2---2--|2---2---2---2---2---2---2---2--|
A|0---0---0---0---0---0---0---0--|3---3---3---3---3---3---3---3--|
E|-------------------------------|3---3---3---3---3---3---3---3--|
  Am                              C
e|0---0-- 0---0-- 0---0-- 0---0--|0---0-- 0---0-- 0---0-- 0---0--|
B|1---1---1---1---1---1---1---1--|1---1---1---1---1---1---1---1--|
G|2---2---2---2---2---2---2---2--|0---0---0---0---0---0---0---0--|
D|2---2---2---2---2---2---2---2--|2---2---2---2---2---2---2---2--|
A|0---0---0---0---0---0---0---0--|3---3---3---3---3---3---3---3--|
E|-------------------------------|3---3---3---3---3---3---3---3--|
              When everything                 is  only    to  get 
                          I   do 

                              (.
  A6
e|------- ------- ------- -------|------- ------- ------- -------|
B|-------------------------------|-------------------------------|
G|-------------------------------|-------------------------------|
D|2---2---2---2---2---2---2---3--|-------------------------------|
A|0---0---0---0---0---0---0---3--|-------------------------------|
E|2---2---2---2---2---2---2---1--|-------------------------------|
  Am6                         F
e|0---0-- 0---0-- 0---0-- 0---1--|------- ------- ------- -------|
B|1---1---1---1---1---1---1---1--|-------------------------------|
G|2---2---2---2---2---2---2---2--|-------------------------------|
D|2---2---2---2---2---2---2---3--|-------------------------------|
A|0---0---0---0---0---0---0---3--|-------------------------------|
E|2---2---2---2---2---2---2---1--|-------------------------------|
  tangled     up      in      you                     You wanna 
                                                              know


  C5              E5              A5              F5
e|------- ------- ------- -------|------- ------- ------- -------|
B|-------------------------------|-------------------------------|
G|-------------------------------|-------------------------------|
D|5---5---5---5------------------|-------------------------------|
A|3---3---3---3---2---2---2---2--|7---7---7---7---3-------3---3--|
E|----------------0---0---0---0--|5---5---5---5---1-------1---1--|
  C               E               Am              F
e|0------ ------- 0------ -------|0------ ------- 1------ -------|
B|1---------------0--------------|1---------------1--------------|
G|0---------------1--------------|2---------------2--------------|
D|2---------------2--------------|2---------------3--------------|
A|3---------------2--------------|0---------------3--------------|
E|3---------------0--------------|----------------1--------------|
  more,   more,   more about  me                  I'm the girl that's               


                                 (.

e|------- ------- ------- -------|------- ------- ------- -------|
B|-------------------------------|-------------------------------|
G|-------------------------------|-------------------------------|
D|5---5---5---5------------------|-------------------------------|
A|3---3---3---3---2---2---2---2--|7------------------------------|
E|----------------0---0---0---0--|5------------------------------|

e|0------ ------- 0------ -------|0------ ------- ------- -------|
B|1---------------0--------------|1------------------------------|
G|0---------------1--------------|2------------------------------|
D|2---------------2--------------|2------------------------------|
A|3---------------2--------------|0------------------------------|
E|3---------------0--------------|-------------------------------|
  sweeping you    off your    feet 



  F5
e|------- ------- ------- -------|
B|-------------------------------|
G|-------------------------------|
D|3---3-----------3---3----------|
A|3---3-----------3---3----------|
E|1---1-----------1---1----------|
  F
e|1---1-- ------- 1---1-- -------|
B|1---1-----------1---1----------|
G|2---2-----------2---2----------|
D|3---3-----------3---3----------|
A|3---3-----------3---3----------|
E|1---1-----------1---1----------|   
          Hey!            Hey! 



  C5              G5              A5              F5
e|------- ------- ------- -------|------- ------- ------- -------|
B|-------------------------------|-------------------------------|
G|5---5---5---5------------------|-------------------------------|
D|5---5---5---5---5---5---5---5--|7---7---7---7---3---3---3---3--|
A|3---3---3---3---5---5---5---5--|7---7---7---7---3---3---3---3--|
E|----------------3---3---3---3--|5---5---5---5---1---1---1---1--|
  C               Gsus4           Am              Fadd9
e|3---3-- 3---3-- 3---3-- 3---3--|3---3-- 3---3-- 3---3-- 3---3-3|
B|1---1---1---1---1---1---1---1--|1---1---1---1---1---1---1---1-1|
G|0---0---0---0---0---0---0---0--|2---2---2---2---2---2---2---2-2|
D|2---2---2---2---0---0---0---0--|2---2---2---2---3---3---3---3-3|
A|3---3---3---3---2---2---2---2--|0---0---0---0---0---0---0---0-0|
E|----------------3---3---3---3--|-------------------------------|
          Hey!              Could see I want 
                              you         you by 
                                              the way I push you  
                                                               away,

e|------- ------- ------- -------|------- ------- ------- -------|
B|-------------------------------|-------------------------------|
G|5---5---5---5------------------|-------------------------------|
D|5---5---5---5---5---5---5---5--|7---7---7---7---3---3---3---3--|
A|3---3---3---3---5---5---5---5--|7---7---7---7---3---3---3---3--|
E|----------------3---3---3---3--|5---5---5---5---1---1---1---1--|
  
e|3---3-- 3---3-- 3---3-- 3---3--|3---3-- 3---3-- 3---3-- 3---3--|
B|1---1---1---1---1---1---1---1--|1---1---1---1---1---1---1---1--|
G|0---0---0---0---0---0---0---0--|2---2---2---2---2---2---2---2--|
D|2---2---2---2---0---0---0---0--|2---2---2---2---3---3---3---3--|
A|3---3---3---3---2---2---2---2--|0---0---0---0---0---0---0---0--|
E|----------------3---3---3---3--|-------------------------------|
          Yeah!           Don't   me tomorrow 
                              judge        by the way I'm 
                                                        acting today 

  D5                              F5
e|------- ------- ------- -------|------- ------- ------- -------|
B|-------------------------------|-------------------------------|
G|7---7---7---7---7---7---7---7--|-------------------------------|
D|7---7---7---7---7---7---7---7--|3---3---3---3---3---3---3---3--|
A|5---5---5---5---5---5---5---5--|3---3---3---3---3---3---3---3--|
E|-------------------------------|1---1---1---1---1---1---1---1--|
  D7sus4                          Fadd9    
e|3---3-- 3---3-- 3---3-- 3---3--|3---3-- 3---3-- 3---3-- 3---3--|
B|1---1---1---1---1---1---1---1--|1---1---1---1---1---1---1---1--|
G|2---2---2---2---2---2---2---2--|2---2---2---2---2---2---2---2--|
D|0---0---0---0---0---0---0---0--|3---3---3---3---3---3---3---3--|
A|-------------------------------|0---0---0---0---0---0---0---0--|
E|-------------------------------|-------------------------------|
  Mix the words     the actions do it all  for your reaction Yeah!    
             up with


  G5                              F5
e|------- ------- ------- -------|------- ------- ------- -------|
B|-------------------------------|-------------------------------|
G|-------------------------------|-------------------------------|
D|5---5---5---5---5---5---5---5--|3---3-----------3---3----------|
A|5---5---5---5---5---5---5---5--|3---3-----------3---3----------|
E|3---3---3---3---3---3---3---3--|1---1-----------1---1----------|
  Gsus4                           F                                        
e|3---3-- 3---3-- 3---3-- 3---0--|3---3-- ------- 3---3-- -------|
B|1---1---1---1---1---1---1---1--|1---1-----------1---1----------|
G|0---0---0---0---0---0---0---0--|2---2-----------2---2----------|
D|0---0---0---0---0---0---0---0--|3---3-----------3---3----------|
A|2---2---2---2---2---2---2---2--|0---0-----------0---0----------|
E|3---3---3---3---3---3---3---3--|-------------------------------|
                                          Hey!            Hey!




e|------- ------- ------- -------|
B|-------------------------------|
G|-------------------------------|
D|3---3--------------------------|
A|3---3--------------------------|
E|1---1--------------------------|
 
e|3---3-- ------- ------- -------|
B|1---1--------------------------|
G|2---2--------------------------|
D|3---3--------------------------|
A|0---0--------------------------|
E|-------------------------------|
              Get tangled up in me 









        B  Bend
        R  Release
        /  Slide up
        \  Slide down
        H  Hammer-on
        P  Pull-off
        ~  Vibrato
        +  Harmonic
        x  Mute note
        .  Play note like a dot in standard notation
        ^  Ties two notes together
        (. Pause
Comments