Sweetnam Skye - Tangled Up In Me Chords & Tabs

 

Tangled Up In Me Chords & Tabs

Sweetnam Skye Chords & Tabs

Version: 2 Type: Tab 0 ratings
1 star 2 stars 3 stars 4 stars 5 stars
comments

Tangled Up In Me Tab

   
-------------------------------------------------------------------------------
			 Tangled up in me - Skye sweetnam
-------------------------------------------------------------------------------
Tabbed by: Metal petal


 Intro x3
e|-------2-------------------------------------------------------------------|
B|---------------------11-----------------------------------12---------------|
G|----2-------------------11------------4-----------------------12-----------|
D|--0--------------11----------------4-----------------12--------------------|
A|--------------9---------------2-----------------10-------------------------|
E|---------------------------------------------------------------------------|

 pre-chorus
e|------------------------|
B|------------------------|
G|------------------------|
D|-0----222222---2h4------|    
A|------------------------|
E|------------------------|

 chorus
e|---------------------------------------------------------------------------|
B|---------------------------------------------------------------------------|
G|----------7--------------------7--------------9---7------------------------|
D|--5-------7--7--9---5----------7--7--9---5----9---7---7----------5---------|
A|--5-------5--7--9---5----------5--7--9---5----7---5---7----------5---------|
E|--3----------5--7---3-------------5--7---3------------5----------3---------|
[ Tab from: http://www.guitartabs.cc/tabs/s/sweetnam_skye/tangled_up_in_me_tab_ver_2.html ]
 post-chorus 1
e|---------------------------------------------------------------------------|
B|--7-7/3-----7-------8/10-8------7--7--8-7----3*/---------------------------|
G|----------9---7------------------------------------------------------------|
D|---------------------------------------------------------------------------|
A|---------------------------------------------------------------------------|
E|---------------------------------------------------------------------------|

 post-chorus 2
e|----------------------------------------------------9-10-------------------|
B|--7-7/3-----7-------8/10-8------7-7/3-----7--------------------------------|
G|----------9---7*------------------------9---7------------------------------|
D|---------------------------------------------------------------------------|
A|---------------------------------------------------------------------------|
E|---------------------------------------------------------------------------|

 bridge
e|---------10-9-----------10-9-----------------------------------------------|
B|--------------10-------------10--------------------------------------------|
G|--9----------------9---------------------9--7------------------------------|
D|--9----------------9---------------------9--7---7---5----------------------|
A|--7----------------7---------------------7--5---7---5----------------------|
E|------------------------------------------------5---3----------------------|
 


 Order:

 Introx3
 pre-chorus
 chorus
 post-chorus 1
 Intro
 pre-chorus
 chorus
 post-chorus 2
 bridge
 chorus


| /  slide up
| \  slide down
| h  hammer-on
| p  pull-off
| *  vibrato
| +  harmonic
| x  Mute note
===============================================================================
Comments