Sweetnam Skye - Sugar Guitar Chords & Tabs

 

Sugar Guitar Chords & Tabs

Sweetnam Skye Chords & Tabs

Version: 1 Type: Chords 0 ratings
1 star 2 stars 3 stars 4 stars 5 stars
comments

Sugar Guitar Chords

   
Skye Sweetnam
Sugar Guitar
2005
This song can be downloaded using a P2P software such as Kazaa, Bearshare, Lime wire and 
you know.
Submitted by canuck_inbred@yahoo.com

Tuning: Standard EADGBe

Chords used:
A-      x02220
F#m-    244222
Bm-     x24432
D-      xx0232

Intro:

Guitar 1:
e|--------------------------------|
B|--------------------------------|
G|--------------------------------|
D|-x-x-7-x-7-x-x-7-x-7-x-7-7-x-7--| (x4)
A|-x-x-4-x-7-x-x-4-x-7-x-4-4-x-7--|
E|-x-x-5-x-5-x-x-5-x-5-x-5-5-x-5--|

Guitar 2:
            A                             F#m
e|------------------------------|---------------------------|
B|------------------------------|---------------------------|
G|------------------------------|---------------------------|
D|-7-7-7-x-7-x-x-7-x-7-x-7-7-x-7|-4-4-4-x-4-x-x-4-x-4-4-x-4-| (x2)
A|-x-x-7-x-7-x-x-7-x-7-x-7-7-x-7|-x-x-4-x-4-x-x-4-x-4-4-x-4-|
E|-x-x-5-x-5-x-x-5-x-5-x-5-5-x-5|-x-x-2-x-2-x-x-2-x-2-2-x-2-|


A   F#m
    Na na na na na na na na na na na (x2)

Verse 1:
A
Trigger pulled, got the fuel, ready to burn
F#m
Looking hot, what we've got, we've had to earn
Bm D
Oh Yeah
   A
Guitar strapped on my back, sugar-pop in hand
      F#m
We're all obsessing about the rock n' roll band
Bm D
Oh Yeah
[ Tab from: http://www.guitartabs.cc/tabs/s/sweetnam_skye/sugar_guitar_crd.html ]
Chorus:
A
Something's got me
D
Spinning round, dizzy sounds
Bm
With the songs you're playing
D                    A
Dancing around in my head
D                    Bm
Dancing around in my head
              D
(Nana nana, nana, nana, na, nana)
A
Something's got me
D
Making noise, teasing boys
Bm
They're screaming for more
D                        A       D
So come and get what you came for
                      Bm
Come and get what you came for
               D
Nana nana, nana, nana, na, nana
A
Nana nana, nana, nana, na, nana
D
Nana nana, nana
                      A       D
Come and get what you came for
                      Bm      D
Come and get what you came for
(Nana nana, nana, nana, na, nana)


Verse 2:
A
Can't ignore anymore, struck in love hardcore
F#m
I've been winking at a guitar warrior
Bm D
Oh Yeah
A
Sugar boy, vicious babe, not well behaved
F#m
Lipstick on, time to rock, attention we crave
Bm D
Oh Yeah

(Repeat Chorus)

Bridge: (Piano Part)
A D         Bm      D
    "Kawaii" *Skye laughs*
A D         Bm      D
    "Kawaii"

(Repeat Chorus until fade out)
Comments