Sweetnam Skye - Shot To Pieces Chords & Tabs

 

Shot To Pieces Chords & Tabs

Sweetnam Skye Chords & Tabs

Version: 2 Type: Tab 0 ratings
1 star 2 stars 3 stars 4 stars 5 stars
comments

Shot To Pieces Tab

   
------------------------------------------------------------------

      SKYE SWEETNAM - SHOT TO PIECES. From NOISE FROM THE BASEMENT
                      album. Released on 21st September 2004.

------------------------------------------------------------------

      Tabbed by:PJVillanueva






I sit 
Biting 
On the 
End of my pen 
Chewing 
It up 
Just like 
It was your head 

I'm running away from here 
Shot to pieces, shot to pieces 
Have nothing to say from here 
Shot to pieces, shot to pieces 
Going my own way from here 
Shot to pieces, shot to pieces 
Just Leave me alone - LEAVE ME ALONE [x3]

Forgive 
Forget 
What you 
Did to me 
I got to 
Get free 
Before
I go crazy 

I'm running away from here 
Shot to pieces, shot to pieces 
Have nothing to say from here 
Shot to pieces, shot to pieces 
Going my own way from here 
Shot to pieces, shot to pieces 
Just Leave me alone - LEAVE ME ALONE [x3]

I'm running away from here 
Going my own way from here 

I'm running away from here 
Shot to pieces, shot to pieces 
Have nothing to say from here 
Shot to pieces, shot to pieces 
Going my own way from here 
Shot to pieces, shot to pieces 
Just Leave me alone - LEAVE ME ALONE [x3]                                


      


                                     
  
e|------- ------- ------- -------|------- ------- ------- -------|
B|-------------------------------|-------------------------------|
G|-------------------------------|-------------------------------|
D|-------------------------------|-------------------------------|
A|1---1-------1-------1-------1--|----1-------1-------1----------|
E|-------------------------------|----------------------------2--|

e|------- ------- ------- -------|------- ------- ------- -------|
B|-------------------------------|-------------------------------|
G|----------------3--------------|3---------------3--------------|
D|--------3---------------3------|--------3---------------3------|
A|-------------------------------|-------------------------------|
E|-------------------------------|-------------------------------|




e|------- ------- ------- -------|------- ------- ------- -------|
B|-------------------------------|-------------------------------|
G|-------------------------------|-------------------------------|
D|-------------------------------|-------------------------------|
A|-------------------------------|----------------------------1--|
E|----2-------2-------2-------2--|----2-------2-------2----------|

e|------- ------- ------- -------|------- ------- ------- -------|
B|-------------------------------|-------------------------------|
G|-------------------------------|-------------------------------|
D|----------------4--------------|4---------------4--------------|
A|--------4---------------4------|--------4---------------4------|
E|-------------------------------|-------------------------------|



e|------- ------- ------- -------|------- ------- ------- -------|
B|-------------------------------|-------------------------------|
G|-------------------------------|-------------------------------|
D|-------------------------------|-------------------------------|
A|----1-------1-------1-------1--|----1-------1-------1----------|
E|-------------------------------|----------------------------2--|

e|------- ------- ------- -------|------- ------- ------- -------|
B|-------------------------------|-------------------------------|
G|----------------3--------------|3---------------3--------------|
D|--------3---------------3------|--------3---------------3------|
A|-------------------------------|-------------------------------|
E|-------------------------------|-------------------------------|



                                                              Bb5
e|------- ------- ------- -------|------- ------- ------- -------|
B|-------------------------------|-------------------------------|
G|-------------------------------|----------------------------3--|
D|-------------------------------|----------------------------3--|
A|-------------------------------|----------------------------1--|
E|----2-------2-------2-------2--|----2-------2-------2----------|

e|------- ------- ------- -------|------- ------- ------- -------|
B|-------------------------------|-------------------------------|
G|-------------------------------|-------------------------------|
D|----------------4--------------|4---------------4--------------|
A|--------4---------------4------|--------4---------------4------|
E|-------------------------------|-------------------------------|



                              Bbmaj7                          G5
e|------- ------- ------- -------|------- ------- ------- -------|
B|-------------------------------|-------------------------------|
G|----------------------------3--|-------------------------------|
D|----------------------------3--|----------------------------5--|
A|----------------------------0--|----------------------------5--|
E|-------------------------------|----------------------------3--|
          I       sit                     Biting 
e|------- ------- ------- -------|------- ------- ------- -------|
B|-------------------------------|-------------------------------|
G|-------------------------------|-------------------------------|
D|--------3---3---3---3---3------|--------3---3---3---3---3------|
A|--------1---1---1---1---1------|--------0---0---0---0---0------|
E|-------------------------------|-------------------------------|



                              F#5                             Bb5
e|------- ------- ------- -------|------- ------- ------- -------|
B|-------------------------------|-------------------------------|
G|-------------------------------|----------------------------3--|
D|----------------------------4--|----------------------------3--|
A|----------------------------4--|----------------------------1--|
E|----------------------------2--|-------------------------------|
          On      the         End     of      my      pen 
e|------- ------- ------- -------|------- ------- ------- -------|
B|-------------------------------|-------------------------------|
G|-------------------------------|-------------------------------|
D|-------------------------------|-------------------------------|
A|----5---5---5---5---5---5------|--------4---4---4---4---4------|
E|----3---3---3---3---3---3------|--------2---2---2---2---2------|  



                               Bbmaj7                         G5
e|------- ------- ------- -------|------- ------- ------- -------|
B|-------------------------------|-------------------------------|
G|----------------------------3--|-------------------------------|
D|----------------------------3--|----------------------------5--|
A|----------------------------0--|----------------------------5--|
E|-------------------------------|----------------------------3--|
          Chewing                         It      up 
e|------- ------- ------- -------|------- ------- ------- -------|
B|-------------------------------|-------------------------------|
G|-------------------------------|-------------------------------|
D|--------3---3---3---3---3------|--------3---3---3---3---3------|
A|--------1---1---1---1---1------|--------0---0---0---0---0------|
E|-------------------------------|-------------------------------|



                              F#5
e|------- ------- ------- -------|------- ------- ------- -------|
B|-------------------------------|-------------------------------|
G|-------------------------------|-------------------------------|
D|----------------------------4--|-------------------------------|
A|----------------------------4--|-------------------------------|
E|----------------------------2--|-------------------------------|
          Just    like        It      was     your    head 
e|------- ------- ------- -------|------- ------- ------- -------|
B|-------------------------------|-------------------------------|
G|-------------------------------|-------------------------------|
D|-------------------------------|----------------------------3-/|
A|----5---5---5---5---5---5------|--------4---4---4---4---4---1-/|
E|----3---3---3---3---3---3------|--------2---2---2---2---2------|



  Csus2                           Ebsus2
e|3------ 3------ 3------ 3------|6---6-- 6---6-- 6---6-- 6---6--|
B|3-------3-------3-------3------|6---6---6---6---6---6---6---6--|
G|5-------5-------5-------5------|8---8---8---8---8---8---8---8--|
D|5-------5-------5-------5------|8---8---8---8---8---8---8---8--|
A|3-------3-------3-------3------|6---6---6---6---6---6---6---6--|
E|-------------------------------|-------------------------------|
          I'm     running away        from    here           (Shot 
e|------- ------- ------- -------|------- ------- ------- -------|
B|-------------------------------|-------------------------------|
G|-------------------------------|-------------------------------|
D|5---5---5---5---5---5---5---5--|8---8---8---8---8---8---8---8--|
A|3---3---3---3---3---3---3---3--|6---6---6---6---6---6---6---6--|
E|-------------------------------|-------------------------------|



  Bb                              F
e|1---1-- 1---1-- 1---1-- 1---1--|1---1-- 1---1-- 1------ 1------|
B|3---3---3---3---3---3---3---3--|1---1---1---1---1-------1------|
G|3---3---3---3---3---3---3---3--|2---2---2---2---2-------2------|
D|3---3---3---3---3---3---3---3--|3---3---3---3---3-------3------|
A|1---1---1---1---1---1---1---1--|3---3---3---3---3-------3------|
E|-------------------------------|1---1---1---1---1-------1------|
      to      pieces,         shot    to      pieces) 
e|------- ------- ------- -------|------- ------- ------- -------|
B|-------------------------------|-------------------------------|
G|-------------------------------|-------------------------------|
D|-------------------------------|-------------------------------|
A|8---8---8---8---8---8---8---8--|3---3---3---3---3---3---3---3--|
E|6---6---6---6---6---6---6---6--|1---1---1---1---1---1---1---1--|



  Csus2                           Ebsus2
e|3------ 3------ 3------ 3---3--|6---6-- 6---6-- 6---6-- 6---6--|
B|3-------3-------3-------3---3--|6---6---6---6---6---6---6---6--|
G|5-------5-------5-------5---5--|8---8---8---8---8---8---8---8--|
D|5-------5-------5-------5---5--|8---8---8---8---8---8---8---8--|
A|3-------3-------3-------3---3--|6---6---6---6---6---6---6---6--|
E|-------------------------------|-------------------------------|
          Have    nothing to  say     from    here           (Shot
e|------- ------- ------- -------|------- ------- ------- -------|
B|-------------------------------|-------------------------------|
G|-------------------------------|-------------------------------|
D|5---5---5---5---5---5---5---5--|8---8---8---8---8---8---8---8--|
A|3---3---3---3---3---3---3---3--|6---6---6---6---6---6---6---6--|
E|-------------------------------|-------------------------------|



  Bb                              F
e|1---1-- 1---1-- 1---1-- 1---1--|1---1-- 1---1-- 1---1-- 1------|
B|3---3---3---3---3---3---3---3--|1---1---1---1---1---1---1------|
G|3---3---3---3---3---3---3---3--|2---2---2---2---2---2---2------|
D|3---3---3---3---3---3---3---3--|3---3---3---3---3---3---3------|
A|1---1---1---1---1---1---1---1--|3---3---3---3---3---3---3------|
E|-------------------------------|1---1---1---1---1---1---1------|
      to      pieces,         shot    to      pieces) 
e|------- ------- ------- -------|------- ------- ------- -------|
B|-------------------------------|-------------------------------|
G|-------------------------------|-------------------------------|
D|-------------------------------|-------------------------------|
A|8---8---8---8---8---8---8---8--|3---3---3---3---3---3---3---3--|
E|6---6---6---6---6---6---6---6--|1---1---1---1---1---1---1---1--|   



  Csus2                           Ebsus2
e|3------ 3------ 3------ 3------|6---6-- 6---6-- 6---6-- 6---6--|
B|3-------3-------3-------3------|6---6---6---6---6---6---6---6--|
G|5-------5-------5-------5------|8---8---8---8---8---8---8---8--|
D|5-------5-------5-------5------|8---8---8---8---8---8---8---8--|
A|3-------3-------3-------3------|6---6---6---6---6---6---6---6--|
E|-------------------------------|-------------------------------|
          Going   my own      way     from    here           (Shot 
e|------- ------- ------- -------|------- ------- ------- -------|
B|-------------------------------|-------------------------------|
G|-------------------------------|-------------------------------|
D|5---5---5---5---5---5---5---5--|8---8---8---8---8---8---8---8--|
A|3---3---3---3---3---3---3---3--|6---6---6---6---6---6---6---6--|
E|-------------------------------|-------------------------------|



  Bb                              F
e|1---1-- 1---1-- 1---1-- 1---1--|1---1-- 1---1-- 1------ 1------|
B|3---3---3---3---3---3---3---3--|1---1---1---1---1-------1------|
G|3---3---3---3---3---3---3---3--|2---2---2---2---2-------2------|
D|3---3---3---3---3---3---3---3--|3---3---3---3---3-------3------|
A|1---1---1---1---1---1---1---1--|3---3---3---3---3-------3------|
E|-------------------------------|1---1---1---1---1-------1------|
      to      pieces,         shot    to      pieces) 
e|------- ------- ------- -------|------- ------- ------- -------|
B|-------------------------------|-------------------------------|
G|-------------------------------|-------------------------------|
D|-------------------------------|-------------------------------|
A|8---8---8---8---8---8---8---8--|3---3---3---3---3---3---3---3--|
E|6---6---6---6---6---6---6---6--|1---1---1---1---1---1---1---1--|




e|------- ------- ------- -------|------- ------- ------- -------|
B|-------------------------------|-------------------------------|
G|-------------------------------|-------------------------------|
D|-------------------------------|-------------------------------|
A|1---3-------1---3-------1---3--|----1---3-------1---3---3---3--|
E|-------------------------------|-------------------------------|
                                          Just   leave me alone
e|------- ------- ------- -------|------- ------- ------- -------|
B|-------------------------------|-------------------------------|
G|-------------------------------|-------------------------------|
D|-------------------------------|-------------------------------|
A|1---3-------1---3-------1---3--|----1---3-------1---3---3---3--|
E|-------------------------------|-------------------------------|




e|------- ------- ------- -------|------- ------- ------- -------|
B|-------------------------------|-------------------------------|
G|-------------------------------|-------------------------------|
D|-------------------------------|-------------------------------|
A|1---3-------1---3-------1---3--|----1---3-------1---3---3---3--|
E|-------------------------------|-------------------------------|
                 LEAVE ME ALONE           Just   leave me alone
e|------- ------- ------- -------|------- ------- ------- -------|
B|-------------------------------|-------------------------------|
G|-------------------------------|-------------------------------|
D|-------------------------------|-------------------------------|
A|1---3-------1---3-------1---3--|----1---3-------1---3---3---3--|
E|-------------------------------|-------------------------------|




e|------- ------- ------- -------|------- ------- ------- -------|
B|-------------------------------|-------------------------------|
G|-------------------------------|-------------------------------|
D|-------------------------------|-------------------------------|
A|1---3-------1---3-------1---3--|----1---3-------1---3---3---3--|
E|-------------------------------|-------------------------------|
                 LEAVE ME ALONE           Just   leave me alone                   
e|------- ------- ------- -------|------- ------- ------- -------|
B|-------------------------------|-------------------------------|
G|-------------------------------|-------------------------------|
D|-------------------------------|-------------------------------|
A|1---3-------1---3-------1---3--|----1---3-------1---3---3---3--|
E|-------------------------------|-------------------------------|




e|------- ------- ------- -------|------- ------- ------- -------|
B|-------------------------------|-------------------------------|
G|-------------------------------|-------------------------------|
D|-------------------------------|-------------------------------|
A|1---3-------1---3-------1---3--|----1---3-------1---3---3---3--|
E|-------------------------------|-------------------------------|
                      JUST    LEAVE   ME  ALONE                       
e|------- ------- ------- -------|------- ------- ------- -------|
B|-------------------------------|-------------------------------|
G|-------------------------------|-------------------------------|
D|-------------------------------|-------------------------------|
A|1---3-------1---3-------1---3--|----1---3-------1---3---3---3--|
E|-------------------------------|-------------------------------|  



  Bb5                         Bbmaj7                          G5
e|------- ------- ------- -------|------- ------- ------- -------|
B|-------------------------------|-------------------------------|
G|3---------------------------3--|-------------------------------|
D|3---------------------------3--|----------------------------5--|
A|1---------------------------0--|----------------------------5--|
E|-------------------------------|----------------------------3--|
          Forgive                         Forget  
e|------- ------- ------- -------|------- ------- ------- -------|
B|-------------------------------|-------------------------------|
G|-------------------------------|-------------------------------|
D|--------3---3---3---3---3------|--------3---3---3---3---3------|
A|--------1---1---1---1---1------|--------0---0---0---0---0------|
E|-------------------------------|-------------------------------|



                              F#5                             Bb5
e|------- ------- ------- -------|------- ------- ------- -------|
B|-------------------------------|-------------------------------|
G|-------------------------------|----------------------------3--|
D|----------------------------4--|----------------------------3--|
A|----------------------------4--|----------------------------1--|
E|----------------------------2--|-------------------------------|
          What    you                 did     to      me
e|------- ------- ------- -------|------- ------- ------- -------|
B|-------------------------------|-------------------------------|
G|-------------------------------|-------------------------------|
D|-------------------------------|-------------------------------|
A|--------5---5---5---5---5------|--------4---4---4---4---4------|
E|--------3---3---3---3---3------|--------2---2---2---2---2------|  



                              Bbmaj7                          G5
e|------- ------- ------- -------|------- ------- ------- -------|
B|-------------------------------|-------------------------------|
G|----------------------------3--|-------------------------------|
D|----------------------------3--|----------------------------5--|
A|----------------------------0--|----------------------------5--|
E|-------------------------------|----------------------------3--|
          I   got to                      Get     free 
e|------- ------- ------- -------|------- ------- ------- -------|
B|-------------------------------|-------------------------------|
G|-------------------------------|-------------------------------|
D|--------3---3---3---3---3------|--------3---3---3---3---3------|
A|--------1---1---1---1---1------|--------0---0---0---0---0------|
E|-------------------------------|-------------------------------|



                              F#5
e|------- ------- ------- -------|------- ------- ------- -------|
B|-------------------------------|-------------------------------|
G|-------------------------------|-------------------------------|
D|----------------------------4--|-------------------------------|
A|----------------------------4--|-------------------------------|
E|----------------------------2--|-------------------------------|
          Before              I       go      crazy 
e|------- ------- ------- -------|------- ------- ------- -------|
B|-------------------------------|-------------------------------|
G|-------------------------------|-------------------------------|
D|-------------------------------|----------------------------3-/|
A|--------5---5---5---5---5------|--------4---4---4---4---4---1-/|
E|--------3---3---3---3---3------|--------2---2---2---2---2------|



  Csus2                           Ebsus2
e|3------ 3------ 3------ 3------|6---6-- 6---6-- 6---6-- 6---6--|
B|3-------3-------3-------3------|6---6---6---6---6---6---6---6--|
G|5-------5-------5-------5------|8---8---8---8---8---8---8---8--|
D|5-------5-------5-------5------|8---8---8---8---8---8---8---8--|
A|3-------3-------3-------3------|6---6---6---6---6---6---6---6--|
E|-------------------------------|-------------------------------|
          I'm     running away        from    here           (Shot 
e|------- ------- ------- -------|------- ------- ------- -------|
B|-------------------------------|-------------------------------|
G|-------------------------------|-------------------------------|
D|5---5---5---5---5---5---5---5--|8---8---8---8---8---8---8---8--|
A|3---3---3---3---3---3---3---3--|6---6---6---6---6---6---6---6--|
E|-------------------------------|-------------------------------|



  Bb                              F
e|1---1-- 1---1-- 1---1-- 1---1--|1---1-- 1---1-- 1------ 1------|
B|3---3---3---3---3---3---3---3--|1---1---1---1---1-------1------|
G|3---3---3---3---3---3---3---3--|2---2---2---2---2-------2------|
D|3---3---3---3---3---3---3---3--|3---3---3---3---3-------3------|
A|1---1---1---1---1---1---1---1--|3---3---3---3---3-------3------|
E|-------------------------------|1---1---1---1---1-------1------|
      to      pieces,         shot    to      pieces) 
e|------- ------- ------- -------|------- ------- ------- -------|
B|-------------------------------|-------------------------------|
G|-------------------------------|-------------------------------|
D|-------------------------------|-------------------------------|
A|8---8---8---8---8---8---8---8--|3---3---3---3---3---3---3---3--|
E|6---6---6---6---6---6---6---6--|1---1---1---1---1---1---1---1--|


[ Tab from: http://www.guitartabs.cc/tabs/s/sweetnam_skye/shot_to_pieces_tab_ver_2.html ]
  Csus2                           Ebsus2
e|3------ 3------ 3------ 3---3--|6---6-- 6---6-- 6---6-- 6---6--|
B|3-------3-------3-------3---3--|6---6---6---6---6---6---6---6--|
G|5-------5-------5-------5---5--|8---8---8---8---8---8---8---8--|
D|5-------5-------5-------5---5--|8---8---8---8---8---8---8---8--|
A|3-------3-------3-------3---3--|6---6---6---6---6---6---6---6--|
E|-------------------------------|-------------------------------|
          Have    nothing to  say     from    here           (Shot
e|------- ------- ------- -------|------- ------- ------- -------|
B|-------------------------------|-------------------------------|
G|-------------------------------|-------------------------------|
D|5---5---5---5---5---5---5---5--|8---8---8---8---8---8---8---8--|
A|3---3---3---3---3---3---3---3--|6---6---6---6---6---6---6---6--|
E|-------------------------------|-------------------------------|



  Bb                              F
e|1---1-- 1---1-- 1---1-- 1---1--|1---1-- 1---1-- 1---1-- 1------|
B|3---3---3---3---3---3---3---3--|1---1---1---1---1---1---1------|
G|3---3---3---3---3---3---3---3--|2---2---2---2---2---2---2------|
D|3---3---3---3---3---3---3---3--|3---3---3---3---3---3---3------|
A|1---1---1---1---1---1---1---1--|3---3---3---3---3---3---3------|
E|-------------------------------|1---1---1---1---1---1---1------|
      to      pieces,         shot    to      pieces) 
e|------- ------- ------- -------|------- ------- ------- -------|
B|-------------------------------|-------------------------------|
G|-------------------------------|-------------------------------|
D|-------------------------------|-------------------------------|
A|8---8---8---8---8---8---8---8--|3---3---3---3---3---3---3---3--|
E|6---6---6---6---6---6---6---6--|1---1---1---1---1---1---1---1--|   



  Csus2                           Ebsus2
e|3------ 3------ 3------ 3------|6---6-- 6---6-- 6---6-- 6---6--|
B|3-------3-------3-------3------|6---6---6---6---6---6---6---6--|
G|5-------5-------5-------5------|8---8---8---8---8---8---8---8--|
D|5-------5-------5-------5------|8---8---8---8---8---8---8---8--|
A|3-------3-------3-------3------|6---6---6---6---6---6---6---6--|
E|-------------------------------|-------------------------------|
          Going   my own      way     from    here           (Shot 
e|------- ------- ------- -------|------- ------- ------- -------|
B|-------------------------------|-------------------------------|
G|-------------------------------|-------------------------------|
D|5---5---5---5---5---5---5---5--|8---8---8---8---8---8---8---8--|
A|3---3---3---3---3---3---3---3--|6---6---6---6---6---6---6---6--|
E|-------------------------------|-------------------------------|



  Bb                              F
e|1---1-- 1---1-- 1---1-- 1---1--|1---1-- 1---1-- 1------ 1------|
B|3---3---3---3---3---3---3---3--|1---1---1---1---1-------1------|
G|3---3---3---3---3---3---3---3--|2---2---2---2---2-------2------|
D|3---3---3---3---3---3---3---3--|3---3---3---3---3-------3------|
A|1---1---1---1---1---1---1---1--|3---3---3---3---3-------3------|
E|-------------------------------|1---1---1---1---1-------1------|
      to      pieces,         shot    to      pieces) 
e|------- ------- ------- -------|------- ------- ------- -------|
B|-------------------------------|-------------------------------|
G|-------------------------------|-------------------------------|
D|-------------------------------|-------------------------------|
A|8---8---8---8---8---8---8---8--|3---3---3---3---3---3---3---3--|
E|6---6---6---6---6---6---6---6--|1---1---1---1---1---1---1---1--|




e|------- ------- ------- -------|------- ------- ------- -------|
B|-------------------------------|-------------------------------|
G|-------------------------------|-------------------------------|
D|-------------------------------|-------------------------------|
A|1---3-------1---3-------1---3--|----1---3-------1---3---3---3--|
E|-------------------------------|-------------------------------|
                                          Just   leave me alone
e|------- ------- ------- -------|------- ------- ------- -------|
B|-------------------------------|-------------------------------|
G|-------------------------------|-------------------------------|
D|-------------------------------|-------------------------------|
A|1---3-------1---3-------1---3--|----1---3-------1---3---3---3--|
E|-------------------------------|-------------------------------|




e|------- ------- ------- -------|------- ------- ------- -------|
B|-------------------------------|-------------------------------|
G|-------------------------------|-------------------------------|
D|-------------------------------|-------------------------------|
A|1---3-------1---3-------1---3--|----1---3-------1---3---3---3--|
E|-------------------------------|-------------------------------|
                 LEAVE ME ALONE           Just   leave me alone
e|------- ------- ------- -------|------- ------- ------- -------|
B|-------------------------------|-------------------------------|
G|-------------------------------|-------------------------------|
D|-------------------------------|-------------------------------|
A|1---3-------1---3-------1---3--|----1---3-------1---3---3---3--|
E|-------------------------------|-------------------------------|




e|------- ------- ------- -------|------- ------- ------- -------|
B|-------------------------------|-------------------------------|
G|-------------------------------|-------------------------------|
D|-------------------------------|-------------------------------|
A|1---3-------1---3-------1---3--|----1---3-------1---3---3---3--|
E|-------------------------------|-------------------------------|
                 LEAVE ME ALONE           Just   leave me alone                   
e|------- ------- ------- -------|------- ------- ------- -------|
B|-------------------------------|-------------------------------|
G|-------------------------------|-------------------------------|
D|-------------------------------|-------------------------------|
A|1---3-------1---3-------1---3--|----1---3-------1---3---3---3--|
E|-------------------------------|-------------------------------|




e|------- ------- ------- -------|------- ------- ------- -------|
B|-------------------------------|-------------------------------|
G|-------------------------------|-------------------------------|
D|-------------------------------|-------------------------------|
A|1---3-------1---3-------1---3--|----1---3-------1---3---3---3--|
E|-------------------------------|-------------------------------|
                      JUST    LEAVE   ME  ALONE                       
e|------- ------- ------- -------|------- ------- ------- -------|
B|-------------------------------|-------------------------------|
G|-------------------------------|-------------------------------|
D|-------------------------------|-------------------------------|
A|1---3-------1---3-------1---3--|----1---3-------1---3---3---3--|
E|-------------------------------|-------------------------------|    



  Bb5                         Bbmaj7                          G5
e|------- ------- ------- -------|------- ------- ------- -------|
B|-------------------------------|-------------------------------|
G|3---------------------------3--|-------------------------------|
D|3---------------------------3--|----------------------------5--|
A|1---------------------------0--|----------------------------5--|
E|-------------------------------|----------------------------3--|
          
e|------- ------- ------- -------|------- ------- ------- -------|
B|-------------------------------|-------------------------------|
G|-------------------------------|-------------------------------|
D|--------3---3---3---3---3------|--------3---3---3---3---3------|
A|--------1---1---1---1---1------|--------0---0---0---0---0------|
E|-------------------------------|-------------------------------|

e|------- ------- ------- -------|------- ------- ------- -------|
B|-------------------------------|-------------------------------|
G|-------10------12--------------|-------10------12--------------|
D|-------------------------------|-------------------------------|
A|--------8------10--------------|--------8------10--------------|
E|-------------------------------|-------------------------------|



                              F#5                             Bb5
e|------- ------- ------- -------|------- ------- ------- -------|
B|-------------------------------|-------------------------------|
G|-------------------------------|----------------------------3--|
D|----------------------------4--|----------------------------3--|
A|----------------------------4--|----------------------------1--|
E|----------------------------2--|-------------------------------|
          
e|------- ------- ------- -------|------- ------- ------- -------|
B|-------------------------------|-------------------------------|
G|-------------------------------|-------------------------------|
D|-------------------------------|-------------------------------|
A|----5---5---5---5---5---5------|--------4---4---4---4---4------|
E|----3---3---3---3---3---3------|--------2---2---2---2---2------|  

e|------- ------- ------- -------|------- ------- ------- -------|
B|-------------------------------|-------------------------------|
G|-------10------12-----------6--|----5-------3-------5----------|
D|-------------------------------|-------------------------------|
A|--------8------10-----------4--|----3-------1-------3----------|
E|-------------------------------|-------------------------------|



                              Bbmaj7                          G5
e|------- ------- ------- -------|------- ------- ------- -------|
B|-------------------------------|-------------------------------|
G|----------------------------3--|-------------------------------|
D|----------------------------3--|----------------------------5--|
A|----------------------------0--|----------------------------5--|
E|-------------------------------|----------------------------3--|
         
e|------- ------- ------- -------|------- ------- ------- -------|
B|-------------------------------|-------------------------------|
G|-------------------------------|-------------------------------|
D|--------3---3---3---3---3------|--------3---3---3---3---3------|
A|--------1---1---1---1---1------|--------0---0---0---0---0------|
E|-------------------------------|-------------------------------|

e|------- ------- ------- -------|------- ---13-- -------15------|
B|-------------------11------13--11--15--13------13-/15------15--|
G|---10------12--10------12------|-------------------------------|
D|-------12----------------------|-------------------------------|
A|-------------------------------|-------------------------------|
E|-------------------------------|-------------------------------|



                              F#5
e|------- ------- ------- -------|------- ------- ------- -------|
B|-------------------------------|-------------------------------|
G|-------------------------------|-------------------------------|
D|----------------------------4--|-------------------------------|
A|----------------------------4--|-------------------------------|
E|----------------------------2--|-------------------------------|
          
e|------- ------- ------- -------|------- ------- ------- -------|
B|-------------------------------|-------------------------------|
G|-------------------------------|-------------------------------|
D|-------------------------------|----------------------------3-/|
A|----5---5---5---5---5---5------|--------4---4---4---4---4---1-/|
E|----3---3---3---3---3---3------|--------2---2---2---2---2------|

e15------15------15------15------|-------16------16------16------|
B|---15-----15-------15------15--15-/16------16------16------16--|
G|-------------------------------|-------------------------------|
D|-------------------------------|-------------------------------|
A|-------------------------------|-------------------------------|
E|-------------------------------|-------------------------------|



  Cm7                                 Eb
e|------- ------- ------- -------|----6-- 6------ 6------ 6---6--|
B11------11------11------11--11--|----8---8-------8-------8---8--|
G|8-------8-------8-------8---8--|----8---8-------8-------8---8--|
D|8-------8-------8-------8---8--|----8---8-------8-------8---8--|
A10------10------10------10--10--|----6---6-------6-------6---6--|
E|8-------8-------8-------8---8--|-------------------------------|
          I'm     running away            from    here 
e18-\---- ------- ------- -------|------- ------- ------- -------|
B|-------------------------------|-------------------------------|
G|-------------------------------|-------------------------------|
D|-------------------------------|-------------------------------|
A|-------------------------------|-------------------------------|
E|-------------------------------|-------------------------------|



  Bb                                  Eb
e|6------ 6------ 6------ 6---6--|----8-- 8------ 8------ -------|
B|6-------6-------6-------6---6--|---10--10------10-------x---x--|
G|7-------7-------7-------7---7--|---10--10------10-------x---x--|
D|8-------8-------8-------8---8--|---10--10------10-------x---x--|
A|8-------8-------8-------8---8--|----8---8-------8--------------|
E|6-------6-------6-------6---6--|-------------------------------|



  Cm7                                 Eb
e|------- ------- ------- -------|----6-- 6------ 6------ 6---6--|
B11------11------11------11--11--|----8---8-------8-------8---8--|
G|8-------8-------8-------8---8--|----8---8-------8-------8---8--|
D|8-------8-------8-------8---8--|----8---8-------8-------8---8--|
A10------10------10------10--10--|----6---6-------6-------6---6--|
E|8-------8-------8-------8---8--|-------------------------------|
          Going   my own      way         from    here 

                              (.
  Bb
e|6------ 6------ 6------ 6---6--|------- ------- ------- -------|
B|6-------6-------6-------6---6--|-------------------------------|
G|7-------7-------7-------7---7--|-------------------------------|
D|8-------8-------8-------8---8--|-------------------------------|
A|8-------8-------8-------8---8--|-------------------------------|
E|6-------6-------6-------6---6--|-------------------------------| 



  Csus2                           Ebsus2
e|3------ 3------ 3------ 3------|6---6-- 6---6-- 6---6-- 6---6--|
B|3-------3-------3-------3------|6---6---6---6---6---6---6---6--|
G|5-------5-------5-------5------|8---8---8---8---8---8---8---8--|
D|5-------5-------5-------5------|8---8---8---8---8---8---8---8--|
A|3-------3-------3-------3------|6---6---6---6---6---6---6---6--|
E|-------------------------------|-------------------------------|
          I'm     running away        from    here           (Shot 
e|------- ------- ------- -------|------- ------- ------- -------|
B|-------------------------------|-------------------------------|
G|-------------------------------|-------------------------------|
D|5---5---5---5---5---5---5---5--|8---8---8---8---8---8---8---8--|
A|3---3---3---3---3---3---3---3--|6---6---6---6---6---6---6---6--|
E|-------------------------------|-------------------------------|



  Bb                              F
e|1---1-- 1---1-- 1---1-- 1---1--|1---1-- 1---1-- 1------ 1------|
B|3---3---3---3---3---3---3---3--|1---1---1---1---1-------1------|
G|3---3---3---3---3---3---3---3--|2---2---2---2---2-------2------|
D|3---3---3---3---3---3---3---3--|3---3---3---3---3-------3------|
A|1---1---1---1---1---1---1---1--|3---3---3---3---3-------3------|
E|-------------------------------|1---1---1---1---1-------1------|
      to      pieces,         shot    to      pieces) 
e|------- ------- ------- -------|------- ------- ------- -------|
B|-------------------------------|-------------------------------|
G|-------------------------------|-------------------------------|
D|-------------------------------|-------------------------------|
A|8---8---8---8---8---8---8---8--|3---3---3---3---3---3---3---3--|
E|6---6---6---6---6---6---6---6--|1---1---1---1---1---1---1---1--|



  Csus2                           Ebsus2
e|3------ 3------ 3------ 3---3--|6---6-- 6---6-- 6---6-- 6---6--|
B|3-------3-------3-------3---3--|6---6---6---6---6---6---6---6--|
G|5-------5-------5-------5---5--|8---8---8---8---8---8---8---8--|
D|5-------5-------5-------5---5--|8---8---8---8---8---8---8---8--|
A|3-------3-------3-------3---3--|6---6---6---6---6---6---6---6--|
E|-------------------------------|-------------------------------|
          Have    nothing to  say     from    here           (Shot
e|------- ------- ------- -------|------- ------- ------- -------|
B|-------------------------------|-------------------------------|
G|-------------------------------|-------------------------------|
D|5---5---5---5---5---5---5---5--|8---8---8---8---8---8---8---8--|
A|3---3---3---3---3---3---3---3--|6---6---6---6---6---6---6---6--|
E|-------------------------------|-------------------------------|



   Bb                              F
e|1---1-- 1---1-- 1---1-- 1---1--|1---1-- 1---1-- 1---1-- 1------|
B|3---3---3---3---3---3---3---3--|1---1---1---1---1---1---1------|
G|3---3---3---3---3---3---3---3--|2---2---2---2---2---2---2------|
D|3---3---3---3---3---3---3---3--|3---3---3---3---3---3---3------|
A|1---1---1---1---1---1---1---1--|3---3---3---3---3---3---3------|
E|-------------------------------|1---1---1---1---1---1---1------|
      to      pieces,         shot    to      pieces) 
e|------- ------- ------- -------|------- ------- ------- -------|
B|-------------------------------|-------------------------------|
G|-------------------------------|-------------------------------|
D|-------------------------------|-------------------------------|
A|8---8---8---8---8---8---8---8--|3---3---3---3---3---3---3---3--|
E|6---6---6---6---6---6---6---6--|1---1---1---1---1---1---1---1--|   



  Csus2                           Ebsus2
e|3------ 3------ 3------ 3------|6---6-- 6---6-- 6---6-- 6---6--|
B|3-------3-------3-------3------|6---6---6---6---6---6---6---6--|
G|5-------5-------5-------5------|8---8---8---8---8---8---8---8--|
D|5-------5-------5-------5------|8---8---8---8---8---8---8---8--|
A|3-------3-------3-------3------|6---6---6---6---6---6---6---6--|
E|-------------------------------|-------------------------------|
          Going   my own      way     from    here           (Shot 
e|------- ------- ------- -------|------- ------- ------- -------|
B|-------------------------------|-------------------------------|
G|-------------------------------|-------------------------------|
D|5---5---5---5---5---5---5---5--|8---8---8---8---8---8---8---8--|
A|3---3---3---3---3---3---3---3--|6---6---6---6---6---6---6---6--|
E|-------------------------------|-------------------------------|



   Bb                              F
e|1---1-- 1---1-- 1---1-- 1---1--|1---1-- 1---1-- 1------ 1------|
B|3---3---3---3---3---3---3---3--|1---1---1---1---1-------1------|
G|3---3---3---3---3---3---3---3--|2---2---2---2---2-------2------|
D|3---3---3---3---3---3---3---3--|3---3---3---3---3-------3------|
A|1---1---1---1---1---1---1---1--|3---3---3---3---3-------3------|
E|-------------------------------|1---1---1---1---1-------1------|
      to      pieces,         shot    to      pieces 
e|------- ------- ------- -------|------- ------- ------- -------|
B|-------------------------------|-------------------------------|
G|-------------------------------|-------------------------------|
D|-------------------------------|-------------------------------|
A|8---8---8---8---8---8---8---8--|3---3---3---3---3---3---3---3--|
E|6---6---6---6---6---6---6---6--|1---1---1---1---1---1---1---1--|




e|------- ------- ------- -------|------- ------- ------- -------|
B|-------------------------------|-------------------------------|
G|-------------------------------|-------------------------------|
D|-------------------------------|-------------------------------|
A|1---3-------1---3-------1---3--|----1---3-------1---3---3---3--|
E|-------------------------------|-------------------------------|
                                          Just   leave me alone
e|------- ------- ------- -------|------- ------- ------- -------|
B|-------------------------------|-------------------------------|
G|-------------------------------|-------------------------------|
D|-------------------------------|-------------------------------|
A|1---3-------1---3-------1---3--|----1---3-------1---3---3---3--|
E|-------------------------------|-------------------------------|




e|------- ------- ------- -------|------- ------- ------- -------|
B|-------------------------------|-------------------------------|
G|-------------------------------|-------------------------------|
D|-------------------------------|-------------------------------|
A|1---3-------1---3-------1---3--|----1---3-------1---3---3---3--|
E|-------------------------------|-------------------------------|
                 LEAVE ME ALONE           Just   leave me alone
e|------- ------- ------- -------|------- ------- ------- -------|
B|-------------------------------|-------------------------------|
G|-------------------------------|-------------------------------|
D|-------------------------------|-------------------------------|
A|1---3-------1---3-------1---3--|----1---3-------1---3---3---3--|
E|-------------------------------|-------------------------------|




e|------- ------- ------- -------|------- ------- ------- -------|
B|-------------------------------|-------------------------------|
G|-------------------------------|-------------------------------|
D|-------------------------------|-------------------------------|
A|1---3-------1---3-------1---3--|----1---3-------1---3---3---3--|
E|-------------------------------|-------------------------------|
                 LEAVE ME ALONE           Just   leave me alone                   
e|------- ------- ------- -------|------- ------- ------- -------|
B|-------------------------------|-------------------------------|
G|-------------------------------|-------------------------------|
D|-------------------------------|-------------------------------|
A|1---3-------1---3-------1---3--|----1---3-------1---3---3---3--|
E|-------------------------------|-------------------------------|




e|------- ------- ------- -------|------- ------- ------- -------|
B|-------------------------------|-------------------------------|
G|-------------------------------|-------------------------------|
D|-------------------------------|-------------------------------|
A|1---3-------1---3-------1---3--|----1---3-------1---3---3---3--|
E|-------------------------------|-------------------------------|
                      JUST    LEAVE   ME  ALONE                       
e|------- ------- ------- -------|------- ------- ------- -------|
B|-------------------------------|-------------------------------|
G|-------------------------------|-------------------------------|
D|-------------------------------|-------------------------------|
A|1---3-------1---3-------1---3--|----1---3-------1---3---3---3--|
E|-------------------------------|-------------------------------|  







        B  Bend
        R  Release
        /  Slide up
        \  Slide down
        H  Hammer-on
        P  Pull-off
        ~  Vibrato
        +  Harmonic
        x  Mute note
        .  Play note like a dot in standard notation
        ^  Ties two notes together
        (. Pause
Comments