Sweetnam Skye - Shot To Pieces Chords & Tabs

 

Shot To Pieces Chords & Tabs

Sweetnam Skye Chords & Tabs

Version: 1 Type: Tab 0 ratings
1 star 2 stars 3 stars 4 stars 5 stars
comments

Shot To Pieces Tab

   
Skye Sweetnam
Shot to Pieces
Noise from the Basement
2004 Capitol Records
Submitted by canuck_inbred@yahoo.com

Intro:

Guitar 1: (x2)
e|----------------------------------|
B|----------------------------------|
G|----------------------------------|
D|---------8-------8-------8--------|
A|-----8-------8-------8-------8----|
E|-6-6---6---6---6---6---6---6---6--|

e|----------------------------------|
B|----------------------------------|
G|----------------------------------|
D|---------4-------4-------4--------|
A|-----4-------4-------4-------4----|
E|-2-2---2---2---2---2---2---2---2--|


Guitar 2: (x2)
e|--------------------|
B|--------------------|
G|--------------------|
D|-x-x-8~----x-x-4~---|
A|-x-x-8~----x-x-4~---|
E|-x-x-6~----x-x-2~---|


Verses:

Guitar 1: (x2)
e|--------------------------|
B|--------------------------|
G|--------------------------|
D|-8-x-x-8-x-x-5-x-x-4-x-x--|
A|-8-x-x-8-x-x-5-x-x-4-x-x--|
E|-6-x-x-5-x-x-3-x-x-2-x-x--|


Chorus:

Guitar 1:
e|------------------------------------------------|
B|------------------------------------------------|
G|-5-x-x-8-x-x-------------5-x-x-8-x-x------------|
D|-5-x-x-8-x-x-8-x-x-3-x-x-5-x-x-8-x-x-5-x-x-3-x--|
A|-3-x-x-6-x-x-8-x-x-3-x-x-3-x-x-6-x-x-5-x-x-3-x--|
E|-------------6-x-x-1-x-x-------------3-x-x-1-x--|
[ Tab from: http://www.guitartabs.cc/tabs/s/sweetnam_skye/shot_to_pieces_tab.html ]
e|------------------------------------------------|
B|------------------------------------------------|
G|-5-x-x-8-x-x-------------5--5--5--5--5--5--5--5-|
D|-5-x-x-8-x-x-8-x-x-3-x-x-5--5--5--5--5--5--5--5-|
A|-3-x-x-6-x-x-8-x-x-3-x-x-3--3--3--3--3--3--3--3-|
E|-------------6-x-x-1-x-x------------------------|


Guitar 2: (Shot to pieces just leave me alone)
e|---------------------------------------------|
B|---------------------------------------------|
G|---------------------------------------------|
D|---------------------------------------------|
A|-1h3p1h3p1h3p1h3p1h3p1h3p1h3p1h3p1h3p1h3p1h3-
E|---------------------------------------------


Bridge:

Guitar 1: (x2)
e|--------------------------|
B|--------------------------|
G|--------------------------|
D|-8-x-x-8-x-x-5-x-x-4-x-x--|
A|-8-x-x-8-x-x-5-x-x-4-x-x--|
E|-6-x-x-5-x-x-3-x-x-2-x-x--|


Guitar 2: Solo
e|----------------------------------|
B|----------------------------------|
G|-10-12--10-12--10-12--------------|
D|---------------------12-10----10--|
A|---------------------------13-----|
E|----------------------------------|

Fast: not sure for this
e|-------------------------------------13~-15~--18~-|
B|-------------------13-11-13-11-13-11--------------|
G|-12-10-12-10-12-10--------------------------------|
D|--------------------------------------------------|
A|--------------------------------------------------|
E|--------------------------------------------------|


Bridge:

Guitar 1: (x2)
e|--------------------------------|
B|--------------------------------|
G|-5-5-5--8-8-8---------10-10-10--|
D|-5-5-5--8-8-8--8-8-8--10-10-10--|
A|-3-3-3--6-6-6--8-8-8---8--8--8--|
E|---------------6-6-6------------|
Comments