Sweetnam Skye - Radio Free Roscoe Chords & Tabs

 

Radio Free Roscoe Chords & Tabs

Sweetnam Skye Chords & Tabs

Version: 1 Type: Bass Tab 0 ratings
1 star 2 stars 3 stars 4 stars 5 stars
comments

Radio Free Roscoe Bass Tab

There arent any tabs for this song,
so i thought i would give it a try.
tabbed by:jordan gosselin
song: RFR theme

H=hammer on 
P=press
/=slide
~=let ring

Guitar intro(enter at 0:13)
Intro/Chorus
G|----------------------------|
D|----------------------------|
A|-3-3-3-3--------------------|
E|---------3-3-3-3--1-1-1h3p1-|x2

Bridge.
G|------------------------------|
D|------------------------------|
A|------------------------------|
E|-5-5-5--3-3-3--2-2-2--1-1-1-1-|x1

Continued.
G|-------------------------------|
D|-------------------------------|
A|-------------------------------|
E|-5-5-5--3-3-3-/-13-15-13-11-10-|x1
[ Tab from: http://www.guitartabs.cc/tabs/s/sweetnam_skye/radio_free_roscoe_btab.html ]
Verse.
G|-------------------------|
D|-------------------------|
A|-3-3-3h0p3h0-------------|
E|--------------1-1-1h0p10-|

Bridge.
G|------------------------------|
D|------------------------------|
A|------------------------------|
E|-5-5-5--3-3-3--2-2-2--1-1-1-1-|x1

Continued.
G|-------------------------------|
D|-------------------------------|
A|-------------------------------|
E|-5-5-5--3-3-3-/-13-15-13-11-10-|x1

Chorus.
G|---------------------------------|
D|---------------------------------|
A|-3-2-0-------------------------3-|
E|--------3-5-3-0--1-1-0-1-0-1-0---|x1

this song is easy...it just looks hard,
but it should be right.
Comments