Sweetnam Skye - I Dont Really Like You Chords & Tabs

 

I Dont Really Like You Chords & Tabs

Sweetnam Skye Chords & Tabs

Version: 1 Type: Tab 0 ratings
1 star 2 stars 3 stars 4 stars 5 stars
comments

I Dont Really Like You Tab

==== I Don't Really Like You ====
Artist: Skye Sweetnam
Tabled by: flasc

Verses:
---------------------------------------------------------|
---------------------------------------------------------|
--7--7--7--------------------------------------7--7--7---|
--7--7--7----5--5------------------------------7--7--7---|
--5--5--5----5--5------------------------------5--5--5---|
-------------3--3----------------------------------------|
            Oh why, I'd like you to leave.... leave me alone...

Pre - Chorus:

-------------------------------|
-------------------------------|
------------5--7---------------|
--5--5--5---5--7---------------|
--5--5--5---3--5---------------|
--3--3--3----------------------|
Everywhere I go....


CHORUS:

-------------------------------|
-------------------------------|
-------7--7--------------------| 4X
--9-9--7--7--5--5--------------|
--9-9--5--5--5--5--------------|
--7-7--------3--3--------------|


Brigde:

------------------------------|
------------------------------|
---7--7--7--7-----------------|
---7--7--7--7-----------------|
---5--5--5--5-----------------|
------------------------------|
You heard what I said...I said I don't really like you...


Repeat: Pre- CHORUS and CHORUS


Lyrics:
I DON'T REALLY LIKE YOU
[ Tab from: http://www.guitartabs.cc/tabs/s/sweetnam_skye/i_dont_really_like_you_tab.html ]
I know what you're trying to do
Make me fall for you
Oh why
I'd like you to leave
And leave me alone

PRE-CHORUS
Everywhere I go,
You'll always be there,
Try to give you hints to leave
(But it's like it came of the other ear)

CHORUS
I don't care what you do
I don't care about you
I don't care get a clue
Cause I don't really like you, I dont really like you
You and your friends are dense
You dont make any sense
It's all at your expense
Cause I don't really like you, I dont really like you

Why have you done this to me
(You know I'm ready)
Oh why
I've been nice so far
But I can't take it anymore

PRE-CHORUS
Time passes by
And you wonder why
I'm not gonna lie
You mean nothin' to me

CHORUS
I don't care what you do
I don't care about you
I don't care get a clue
Cause I don't really like you, I dont really like you
You and your friends are dense
You dont make any sense
It's all at your expense
Cause I don't really like you, I dont really like you

BRIDGE
You heard what I said
I said I dont really like you

PRE-CHORUS
Time passes by
And you wonder why
I'm not gonna lie
You mean nothin' to me

CHORUS
I don't care what you do
I don't care about you
I don't care get a clue
Cause I don't really like you, I dont really like you
You and your friends are dense
You dont make any sense
It's all at your expense
Cause I don't really like you, I dont really like you

I said I dont really like you
Comments