Sweetnam Skye - I Dont Care Chords & Tabs

 

I Dont Care Chords & Tabs

Sweetnam Skye Chords & Tabs

Version: 1 Type: Tab 0 ratings
1 star 2 stars 3 stars 4 stars 5 stars
comments

I Dont Care Tab

   
-----------------------------------------------------------------------------
			     I Don't Care - Skye Sweetnam
-----------------------------------------------------------------------------
Tabbed by: Jen
Email: jen@ssweetnam.net

Tuning: Standard EBGDAE


Intro
------

Guitar #1
E|---------------|---------------|---------------|---------------|
B|---------------|---------------|---------------|---------------|
G|---------------|---------------|---------------|---------------|
D|---------------|---------------|---------------|---------------|
A|--------3------|--------3------|-----------3---|-----------3---|
E|-5-5--5---7-5--|-3-3--3---7-5--|-1-1--1-1------|-1-1--1-1------|

E|---------------|---------------|---------------|---------------|
B|---------------|---------------|---------------|---------------|
G|---------------|---------------|---------------|---------------|
D|---------------|---------------|---------------|---------------|
A|-0-0--0-3-2-0--|--------3-2-0--|-----------3---|-----------3---|
E|---------------|-3-3--3--------|-1-1--1-1------|-1-1--1-1------| x3


Verse
------

Guitar #1
4 bars rest (optional - on the recording there's a rest. 
when live Matt plays this twice, except don't play the 2nd F first time round)
   Am                G               F               F
E|---0-----------|---3-----------|---1-----------|---x-----------|
B|---1-----------|---3-----------|---1-----------|---x-----------|
G|---2-----------|---4-----------|---2-----------|---x-----------|
D|---x-----------|---x-----------|---x-----------|---3-----------|
A|---x-----------|---x-----------|---x-----------|---3-----------|
E|---x-----------|---x-----------|---x-----------|---1-----------| (x2)


Pre-chorus
-----------

Guitar #1
E|---------------|---------------|---------------|---------------|
B|---------------|---------------|---------------|---------------|
G|---------------|---------------|---------------|---------------|
D|---------------|---------------|---------------|---------------|
A|-0-0--0-3-2-0--|--------3-2-0--|-----------3---|-----------3---|
E|---------------|-3-3--3--------|-1-1--1-1------|-1-1--1-1------| x2


Chorus
------
Guitar #1 (can use full chords as shown or power chords)
   C		   G               Am              F
E|-3-------------|-3-------------|-5-------------|-1-------------|
B|-5-------------|-3-------------|-5-------------|-1-------------|
G|-5-------------|-4-------------|-5-------------|-2-------------|
D|-5-------------|-5-------------|-7-------------|-3-------------|
A|-3-------------|-5-------------|-7-------------|-3-------------|
E|-x-------------|-3-------------|-5-------------|-1-------------|
[ Tab from: http://www.guitartabs.cc/tabs/s/sweetnam_skye/i_dont_care_tab.html ]
   C		   G               Am              G
E|-3-------------|-3-------------|-5-------------|-3-------------|
B|-5-------------|-3-------------|-5-------------|-3-------------|
G|-5-------------|-4-------------|-5-------------|-4-------------|
D|-5-------------|-5-------------|-7-------------|-5-------------|
A|-3-------------|-5-------------|-7-------------|-5-------------|
E|-x-------------|-3-------------|-5-------------|-3-------------|

   F		   G                 
E|-1-------------|-3-------------|	
B|-1-------------|-3-------------|	
G|-2-------------|-4-------------|	
D|-3-------------|-5-------------|	
A|-3-------------|-5-------------|	
E|-1-------------|-3-------------| x3	

Guitar #2
After 'I was meant to be this way'    
E|----------------|
B|----------------|
G|-------------0-0|
D|-----0-0-2-2----|
A|-3-3------------|
E|----------------|

After-chorus
-------------
Guitar #1
   Am
E|-x-x-x-x-x-x-x-x|-x-x-x-x-x----|
B|-x-x-x-x-x-x-x-x|-x-x-x-x-x----|
G|-x-x-x-x-x-x-x-x|-x-x-x-x-x----|
D|-7-7-7-7-7-7-7-7|-7-7-7-7-7----|
A|-7-7-7-7-7-7-7-7|-5-5-5-5-5----|
E|-5-5-5-5-5-5-5-5|-5-5-5-5-5----|


Guitar #2
(2nd & 3rd time)
E|------------------------------|------------------------------|
B|------------------------------|------------------------------|
G|------------------------------|------------------------------|
D|-----------------------5-5-7-7|-----------------------5--7---|
A|-------------5-5-5-7-7--------|-------------5-5-7-7-5-5--7---|
E|-5-5-5-8-8-8------------------|-5-5-5-8-8-8-----------3--5---|


Bridge
-------

Guitar #1

E|---------------|---------------|---------------|---------------|
B|---------------|---------------|---------------|---------------|
G|---------------|---------------|---------------|---------------|
D|---------------|---------------|---------------|---------------|
A|-0-0--0-3-2-0--|--------3-2-0--|-----------3---|-----------3---|
E|---------------|-3-3--3--------|-1-1--1-1------|-1-1--1-1------| x2

Outro (same as After-chorus)
------
Guitar #2

E|------------------------------|------------------------------|
B|------------------------------|------------------------------|
G|------------------------------|------------------------------|
D|-----------------------5-5-7-7|-----------------------5--7---|
A|-------------5-5-5-7-7--------|-------------5-5-7-7-5-5--7---|
E|-5-5-5-8-8-8------------------|-5-5-5-8-8-8-----------3--5---|


Order
------
Intro
Verse
Pre-chorus
Chorus
After-chorus (Guitar #1 only)
Verse
Pre-chorus
Chorus
After-chorus
Bridge
Chorus
Outro


| /  slide up
| \  slide down
| h  hammer-on
| p  pull-off
| ~  vibrato
| +  harmonic
| x  Mute note
===============================================================================
Comments