Sweethaven - Go Back Chords & Tabs

 

Go Back Chords & Tabs

Sweethaven Chords & Tabs

Version: 1 Type: Tab 1 rating
1 star 2 stars 3 stars 4 stars 5 stars
comments

Go Back Tab

   
C- 032010

G- 320033

Am- 002210

Em- 022000

F- 133211

Bm7- 224232

------------------------------------------------------------------------

Intro:
        				
E|--------------------0-------------------------0-----------------------
B|--1--------1--3--1-----1--1--------0h1--3--1-----1--1--------0h1--3--1
G|--------0-----------------------0-------------------------2-----------
A|-----2-----------------------0-------------------------2--------------
D|--3-------------------------------------------------0-----------------
E|--------------------------3-------------------------------------------


E|--------------------0-----------------------3h1--------------1--0h1p0-
B|-----------------0-----0-----------------1----------------1-----------
G|--2-----------0-----------0-----------2----------------0--------------
A|-----2-----2-----------------2-----3----------------2-----------------
D|-------------------------------------------------3--------------------
E|--------0-----------------------1-------------------------------------


E|--------------------3----------------------1---
B|--1--------------1-----1----------------1------
G|-----0--------------------0----------2---------
A|--------------0-------------------3------------
D|-----------2-----------------------------------
E|--------3--------------------0h1---------------


Verse 1:

C                 G                Am                Em
Why don’t you go back, I know you wouldn’t hurt any more

               Am                  C               G       Am
Than when you left then you would not have to be alone……anymore
[ Tab from: http://www.guitartabs.cc/tabs/s/sweethaven/go_back_tab.html ]
C              G                   Am               Em
You, only for you, you say you’re happy, whoopadee doo

                     Am                    C                      G
You know that’s not true and they know it too you’re playing the fool


Chorus:

C  F  G  C
Go…ba-ck…go

C                F   G  C
So, you say it’s wha-ck…so
Verse 2:

C                       G                     Am   
Sleep, you get next to none, you’re having a meltdown and jumping the 

Em                     Am                        C
Gun you’ve heard of suggestions that hit like a ton, well I’ll give you 

G
One


Chorus:

C  F  G
Go…ba-ck

C
Go, go, go, go, go, go

C		    F   G  C
So…you say it’s wha-ck…so


Bridge:

        F          G             C
If you don’t go the end will be sad

        F                 G            C
If you won’t then you’ll lose all you had

             F (Strum & let ring)
You’ve been runnin’ hard

           C (Strum & let ring)
You can’t find your place

         F       Bm7    G (long, then palm)
And the memories won’t erase

(No chords)
Ready set


Chorus:

C  F  G  C
Go…ba-ck…go

C              F   G  C
So…you say its wha-ck…so

C (Strike x6)  F  G  C
Go-o-o-o-o-o-o ba-ck…go

C                  F   G  C
What threw you off tra-ck…go

(Repeat Intro with strum at end)
Enjoy!  -Dave
Comments