Sweet - Wig Wam Bam Chords & Tabs

 

Wig Wam Bam Chords & Tabs

Sweet Chords & Tabs

Version: 1 Type: Tab 0 ratings
1 star 2 stars 3 stars 4 stars 5 stars
comments

Wig Wam Bam Tab

The song starts with something like this..

e---------------
B---------------
G----9--9-9-9---
D----9--9-9-9--- x4
A----7--7-7-7---
E---------------

Then..

e---------------
B---------------
G----8/9-9-9----
D----8/9-9-9---- x4
A----6/7-7-7----
E---------------

And then he starts to sing. Listen for yourself
to know where to start playing. This is the Verse.

e-------------------
B-------------------
G-------------------
D----7-7-9-9-9-9----
A----7-7-9-9-9-9----
E----5-5-7-7-7-7----

e---------------------------------------
B---------------------------------------
G----9-9-9-9-9-9-9-9--------------------
D----9-9-9-9-9-9-9-9-7-7-7-9-9-9-9-9---- x2
A----7-7-7-7-7-7-7-7-7-7-7-9-9-9-9-9----
E--------------------5-5-5-7-7-7-7-7----

"Bridge"

e---------------
B---------------
G---------------
D----6/7-7-7----
A----6/7-7-7---- x4
E----4/5-5-5----
[ Tab from: http://www.guitartabs.cc/tabs/s/sweet/wig_wam_bam_tab.html ]
e---------------
B---------------
G---------------
D----8/9-9-9----
A----8/9-9-9---- x4
E----6/7-7-7----

The Chorus is very much like the Verse

e-----------------------------------
B-----------------------------------
G----9--9--9--9---------------------
D----9--9--9--9--7-7-7-9--9-9-9----- x3
A----7--7--7--7--7-7-7-9--9-9-9-----
E----------------5-5-5-7--7-7-7-----

Then the bridge comes again, but right after
the bridge this comes. 1 strike. And then the
verse starts again.

e---------
B---------
G----9----
D----9----
A----7----
E---------

After they've did everything one more time
the solo starts. I don't want to tab this so
you'll have to do it yourself.

After the solo, he starts singing again, and
when it's time to start playing, play everything
one step higher than before.

And that's about everything, there's some things
left to tab but I'll leave it to you.
Comments