Sweet - Love Is Like Oxygen Chords & Tabs

 

Love Is Like Oxygen Chords & Tabs

Sweet Chords & Tabs

Version: 2 Type: Tab

Love Is Like Oxygen Tab

E---------------------------------------------------------------------------|
B---------------------------------------------------------------------------|
G---------------------------------------------------------------------------|
D----7--x-x--7--x-x--7-6-5--x-x--5--x-x--5-6-7--x-x--7--x-x--7-6-5--x-x--5--|
A----7--x-x--7--x-x--7-6-5--x-x--5--x-x--5-6-7--x-x--7--x-x--7-6-5--x-x--5--|
E----5--x-x--5--x-x--5-4-3--x-x--3--x-x--3-4-5--x-x--5--x-x--5-4-3--x-x--3--|

E--------------|
B--------------|
G--------------|
D--x-x--5-6-7--|
A--x-x--5-6-7--|
E--x-x--3-4-5--|

Keep reapeating for the whole song. I apologize for any mistakes this is my first tab. Enjoy.
[ Tab from: http://www.guitartabs.cc/tabs/s/sweet/love_is_like_oxygen_tab_ver_2.html ]